ISO-10303-21;
HEADER;
/* Generated by software containing ST-Developer
 * from STEP Tools, Inc. (www.steptools.com) 
 */
/* OPTION: using custom schema-name function */

FILE_DESCRIPTION(
/* description */ (''),
/* implementation_level */ '2;1');

FILE_NAME(
/* name */ 'SCACL-1212-F09.stp',
/* time_stamp */ '2023-10-13T17:34:56+03:00',
/* author */ (''),
/* organization */ (''),
/* preprocessor_version */ 'ST-DEVELOPER v19.4',
/* originating_system */ 'SIEMENS PLM Software NX2306.3001',
/* authorisation */ '');

FILE_SCHEMA (('AUTOMOTIVE_DESIGN { 1 0 10303 214 3 1 1 1 }'));
ENDSEC;

DATA;
#10=SHAPE_REPRESENTATION_RELATIONSHIP('None',
'relationship between SCACR 1212 F09-None and SCACR 1212 F09-None',#36,
#11);
#11=ADVANCED_BREP_SHAPE_REPRESENTATION('SCACR 1212 F09-None',(#46),#606);
#12=CONTEXT_DEPENDENT_SHAPE_REPRESENTATION(#14,#20);
#13=NEXT_ASSEMBLY_USAGE_OCCURRENCE('1001',' ','CCMT 09T308',#22,#21,$);
#14=(
REPRESENTATION_RELATIONSHIP(' ',' ',#35,#36)
REPRESENTATION_RELATIONSHIP_WITH_TRANSFORMATION(#15)
SHAPE_REPRESENTATION_RELATIONSHIP()
);
#15=ITEM_DEFINED_TRANSFORMATION(' ',' ',#386,#411);
#16=SHAPE_DEFINITION_REPRESENTATION(#18,#35);
#17=SHAPE_DEFINITION_REPRESENTATION(#19,#36);
#18=PRODUCT_DEFINITION_SHAPE('','',#21);
#19=PRODUCT_DEFINITION_SHAPE('','',#22);
#20=PRODUCT_DEFINITION_SHAPE(' ','NAUO PRDDFN',#13);
#21=PRODUCT_DEFINITION(' ','',#25,#23);
#22=PRODUCT_DEFINITION(' ','',#26,#24);
#23=PRODUCT_DEFINITION_CONTEXT('part definition',#34,'design');
#24=PRODUCT_DEFINITION_CONTEXT('part definition',#34,'design');
#25=PRODUCT_DEFINITION_FORMATION_WITH_SPECIFIED_SOURCE(' ',' ',#29,
 .NOT_KNOWN.);
#26=PRODUCT_DEFINITION_FORMATION_WITH_SPECIFIED_SOURCE(' ',' ',#30,
 .NOT_KNOWN.);
#27=PRODUCT_RELATED_PRODUCT_CATEGORY('part','',(#29));
#28=PRODUCT_RELATED_PRODUCT_CATEGORY('part','',(#30));
#29=PRODUCT('CCMT 09T308','CCMT 09T308',' ',(#31));
#30=PRODUCT('SCACR 1212 F09','SCACR 1212 F09',' ',(#32));
#31=PRODUCT_CONTEXT(' ',#34,'mechanical');
#32=PRODUCT_CONTEXT(' ',#34,'mechanical');
#33=APPLICATION_PROTOCOL_DEFINITION('international standard',
'automotive_design',2010,#34);
#34=APPLICATION_CONTEXT(
'core data for automotive mechanical design processes');
#35=SHAPE_REPRESENTATION('CCMT 09T308-KAPALI ELMAS',(#386),#607);
#36=SHAPE_REPRESENTATION('SCACR 1212 F09-None',(#386,#411),#606);
#37=PRESENTATION_LAYER_ASSIGNMENT('1','Layer 1',(#46));
#38=STYLED_ITEM('',(#39),#46);
#39=PRESENTATION_STYLE_ASSIGNMENT((#40));
#40=SURFACE_STYLE_USAGE(.BOTH.,#41);
#41=SURFACE_SIDE_STYLE('',(#42));
#42=SURFACE_STYLE_FILL_AREA(#43);
#43=FILL_AREA_STYLE('',(#44));
#44=FILL_AREA_STYLE_COLOUR('',#45);
#45=COLOUR_RGB('light gray',0.8,0.8,0.8);
#46=MANIFOLD_SOLID_BREP('',#47);
#47=CLOSED_SHELL('',(#51,#52,#53,#54,#55,#56,#57,#58,#59,#60,#61,#62,#63,
#64,#65,#66,#67,#68));
#48=CONICAL_SURFACE('',#409,0.312545293215469,6.99999999999999);
#49=CYLINDRICAL_SURFACE('',#392,0.8);
#50=CYLINDRICAL_SURFACE('',#404,2.);
#51=ADVANCED_FACE('',(#84),#69,.T.);
#52=ADVANCED_FACE('',(#85),#49,.T.);
#53=ADVANCED_FACE('',(#86),#70,.F.);
#54=ADVANCED_FACE('',(#87),#71,.F.);
#55=ADVANCED_FACE('',(#88),#72,.T.);
#56=ADVANCED_FACE('',(#89),#73,.T.);
#57=ADVANCED_FACE('',(#90),#74,.T.);
#58=ADVANCED_FACE('',(#91),#75,.T.);
#59=ADVANCED_FACE('',(#92),#76,.T.);
#60=ADVANCED_FACE('',(#93),#77,.T.);
#61=ADVANCED_FACE('',(#94),#78,.F.);
#62=ADVANCED_FACE('',(#95),#79,.F.);
#63=ADVANCED_FACE('',(#96),#50,.T.);
#64=ADVANCED_FACE('',(#97),#80,.F.);
#65=ADVANCED_FACE('',(#98),#81,.T.);
#66=ADVANCED_FACE('',(#99),#82,.T.);
#67=ADVANCED_FACE('',(#100),#48,.F.);
#68=ADVANCED_FACE('',(#101),#83,.T.);
#69=PLANE('',#389);
#70=PLANE('',#393);
#71=PLANE('',#394);
#72=PLANE('',#395);
#73=PLANE('',#396);
#74=PLANE('',#397);
#75=PLANE('',#398);
#76=PLANE('',#399);
#77=PLANE('',#401);
#78=PLANE('',#402);
#79=PLANE('',#403);
#80=PLANE('',#405);
#81=PLANE('',#407);
#82=PLANE('',#408);
#83=PLANE('',#410);
#84=FACE_OUTER_BOUND('',#102,.T.);
#85=FACE_OUTER_BOUND('',#103,.T.);
#86=FACE_OUTER_BOUND('',#104,.T.);
#87=FACE_OUTER_BOUND('',#105,.T.);
#88=FACE_OUTER_BOUND('',#106,.T.);
#89=FACE_OUTER_BOUND('',#107,.T.);
#90=FACE_OUTER_BOUND('',#108,.T.);
#91=FACE_OUTER_BOUND('',#109,.T.);
#92=FACE_OUTER_BOUND('',#110,.T.);
#93=FACE_OUTER_BOUND('',#111,.T.);
#94=FACE_OUTER_BOUND('',#112,.T.);
#95=FACE_OUTER_BOUND('',#113,.T.);
#96=FACE_OUTER_BOUND('',#114,.T.);
#97=FACE_OUTER_BOUND('',#115,.T.);
#98=FACE_OUTER_BOUND('',#116,.T.);
#99=FACE_OUTER_BOUND('',#117,.T.);
#100=FACE_OUTER_BOUND('',#118,.T.);
#101=FACE_OUTER_BOUND('',#119,.T.);
#102=EDGE_LOOP('',(#204,#205,#206,#207,#208,#209,#210,#211,#212,#213,#214,
#215));
#103=EDGE_LOOP('',(#216,#217,#218,#219));
#104=EDGE_LOOP('',(#220,#221,#222,#223,#224,#225));
#105=EDGE_LOOP('',(#226,#227,#228,#229,#230,#231));
#106=EDGE_LOOP('',(#232,#233,#234,#235));
#107=EDGE_LOOP('',(#236,#237,#238,#239,#240,#241));
#108=EDGE_LOOP('',(#242,#243,#244,#245));
#109=EDGE_LOOP('',(#246,#247,#248,#249,#250,#251));
#110=EDGE_LOOP('',(#252,#253,#254,#255));
#111=EDGE_LOOP('',(#256,#257,#258,#259,#260,#261,#262,#263,#264,#265));
#112=EDGE_LOOP('',(#266,#267,#268,#269));
#113=EDGE_LOOP('',(#270,#271,#272,#273));
#114=EDGE_LOOP('',(#274,#275,#276,#277));
#115=EDGE_LOOP('',(#278,#279,#280,#281));
#116=EDGE_LOOP('',(#282,#283,#284,#285,#286,#287));
#117=EDGE_LOOP('',(#288,#289,#290,#291));
#118=EDGE_LOOP('',(#292,#293,#294,#295));
#119=EDGE_LOOP('',(#296,#297,#298,#299));
#120=LINE('',#510,#162);
#121=LINE('',#512,#163);
#122=LINE('',#516,#164);
#123=LINE('',#518,#165);
#124=LINE('',#520,#166);
#125=LINE('',#522,#167);
#126=LINE('',#524,#168);
#127=LINE('',#526,#169);
#128=LINE('',#528,#170);
#129=LINE('',#530,#171);
#130=LINE('',#535,#172);
#131=LINE('',#539,#173);
#132=LINE('',#541,#174);
#133=LINE('',#543,#175);
#134=LINE('',#544,#176);
#135=LINE('',#546,#177);
#136=LINE('',#548,#178);
#137=LINE('',#550,#179);
#138=LINE('',#552,#180);
#139=LINE('',#553,#181);
#140=LINE('',#555,#182);
#141=LINE('',#557,#183);
#142=LINE('',#559,#184);
#143=LINE('',#562,#185);
#144=LINE('',#564,#186);
#145=LINE('',#566,#187);
#146=LINE('',#567,#188);
#147=LINE('',#569,#189);
#148=LINE('',#571,#190);
#149=LINE('',#573,#191);
#150=LINE('',#575,#192);
#151=LINE('',#577,#193);
#152=LINE('',#579,#194);
#153=LINE('',#581,#195);
#154=LINE('',#582,#196);
#155=LINE('',#586,#197);
#156=LINE('',#588,#198);
#157=LINE('',#591,#199);
#158=LINE('',#594,#200);
#159=LINE('',#598,#201);
#160=LINE('',#600,#202);
#161=LINE('',#602,#203);
#162=VECTOR('',#416,1.);
#163=VECTOR('',#417,1.);
#164=VECTOR('',#420,1.);
#165=VECTOR('',#421,1.);
#166=VECTOR('',#422,1.);
#167=VECTOR('',#423,1.);
#168=VECTOR('',#424,1.);
#169=VECTOR('',#425,1.);
#170=VECTOR('',#426,1.);
#171=VECTOR('',#427,1.);
#172=VECTOR('',#432,1.);
#173=VECTOR('',#435,1.);
#174=VECTOR('',#438,1.);
#175=VECTOR('',#439,1.);
#176=VECTOR('',#440,1.);
#177=VECTOR('',#441,1.);
#178=VECTOR('',#444,1.);
#179=VECTOR('',#445,1.);
#180=VECTOR('',#446,1.);
#181=VECTOR('',#447,1.);
#182=VECTOR('',#450,1.);
#183=VECTOR('',#451,1.);
#184=VECTOR('',#454,1.);
#185=VECTOR('',#455,1.);
#186=VECTOR('',#456,1.);
#187=VECTOR('',#457,1.);
#188=VECTOR('',#458,1.);
#189=VECTOR('',#461,1.);
#190=VECTOR('',#462,1.);
#191=VECTOR('',#465,1.);
#192=VECTOR('',#466,1.);
#193=VECTOR('',#467,1.);
#194=VECTOR('',#468,1.);
#195=VECTOR('',#471,1.);
#196=VECTOR('',#472,1.);
#197=VECTOR('',#477,1.);
#198=VECTOR('',#480,1.);
#199=VECTOR('',#485,1.);
#200=VECTOR('',#490,1.);
#201=VECTOR('',#493,1.);
#202=VECTOR('',#496,1.);
#203=VECTOR('',#499,1.);
#204=ORIENTED_EDGE('',*,*,#332,.T.);
#205=ORIENTED_EDGE('',*,*,#333,.T.);
#206=ORIENTED_EDGE('',*,*,#334,.T.);
#207=ORIENTED_EDGE('',*,*,#335,.T.);
#208=ORIENTED_EDGE('',*,*,#336,.T.);
#209=ORIENTED_EDGE('',*,*,#337,.F.);
#210=ORIENTED_EDGE('',*,*,#338,.T.);
#211=ORIENTED_EDGE('',*,*,#339,.F.);
#212=ORIENTED_EDGE('',*,*,#340,.T.);
#213=ORIENTED_EDGE('',*,*,#341,.F.);
#214=ORIENTED_EDGE('',*,*,#342,.T.);
#215=ORIENTED_EDGE('',*,*,#343,.T.);
#216=ORIENTED_EDGE('',*,*,#344,.F.);
#217=ORIENTED_EDGE('',*,*,#345,.T.);
#218=ORIENTED_EDGE('',*,*,#346,.F.);
#219=ORIENTED_EDGE('',*,*,#347,.F.);
#220=ORIENTED_EDGE('',*,*,#348,.F.);
#221=ORIENTED_EDGE('',*,*,#349,.F.);
#222=ORIENTED_EDGE('',*,*,#347,.T.);
#223=ORIENTED_EDGE('',*,*,#350,.F.);
#224=ORIENTED_EDGE('',*,*,#351,.T.);
#225=ORIENTED_EDGE('',*,*,#334,.F.);
#226=ORIENTED_EDGE('',*,*,#352,.F.);
#227=ORIENTED_EDGE('',*,*,#342,.F.);
#228=ORIENTED_EDGE('',*,*,#353,.F.);
#229=ORIENTED_EDGE('',*,*,#354,.F.);
#230=ORIENTED_EDGE('',*,*,#345,.F.);
#231=ORIENTED_EDGE('',*,*,#355,.F.);
#232=ORIENTED_EDGE('',*,*,#341,.T.);
#233=ORIENTED_EDGE('',*,*,#356,.T.);
#234=ORIENTED_EDGE('',*,*,#357,.T.);
#235=ORIENTED_EDGE('',*,*,#353,.T.);
#236=ORIENTED_EDGE('',*,*,#358,.T.);
#237=ORIENTED_EDGE('',*,*,#359,.F.);
#238=ORIENTED_EDGE('',*,*,#360,.F.);
#239=ORIENTED_EDGE('',*,*,#361,.T.);
#240=ORIENTED_EDGE('',*,*,#337,.T.);
#241=ORIENTED_EDGE('',*,*,#362,.T.);
#242=ORIENTED_EDGE('',*,*,#340,.F.);
#243=ORIENTED_EDGE('',*,*,#363,.F.);
#244=ORIENTED_EDGE('',*,*,#364,.F.);
#245=ORIENTED_EDGE('',*,*,#356,.F.);
#246=ORIENTED_EDGE('',*,*,#365,.T.);
#247=ORIENTED_EDGE('',*,*,#366,.F.);
#248=ORIENTED_EDGE('',*,*,#367,.T.);
#249=ORIENTED_EDGE('',*,*,#368,.T.);
#250=ORIENTED_EDGE('',*,*,#363,.T.);
#251=ORIENTED_EDGE('',*,*,#339,.T.);
#252=ORIENTED_EDGE('',*,*,#369,.F.);
#253=ORIENTED_EDGE('',*,*,#359,.T.);
#254=ORIENTED_EDGE('',*,*,#370,.T.);
#255=ORIENTED_EDGE('',*,*,#367,.F.);
#256=ORIENTED_EDGE('',*,*,#371,.T.);
#257=ORIENTED_EDGE('',*,*,#350,.T.);
#258=ORIENTED_EDGE('',*,*,#346,.T.);
#259=ORIENTED_EDGE('',*,*,#354,.T.);
#260=ORIENTED_EDGE('',*,*,#357,.F.);
#261=ORIENTED_EDGE('',*,*,#364,.T.);
#262=ORIENTED_EDGE('',*,*,#368,.F.);
#263=ORIENTED_EDGE('',*,*,#370,.F.);
#264=ORIENTED_EDGE('',*,*,#358,.F.);
#265=ORIENTED_EDGE('',*,*,#372,.T.);
#266=ORIENTED_EDGE('',*,*,#360,.T.);
#267=ORIENTED_EDGE('',*,*,#369,.T.);
#268=ORIENTED_EDGE('',*,*,#366,.T.);
#269=ORIENTED_EDGE('',*,*,#373,.F.);
#270=ORIENTED_EDGE('',*,*,#365,.F.);
#271=ORIENTED_EDGE('',*,*,#338,.F.);
#272=ORIENTED_EDGE('',*,*,#361,.F.);
#273=ORIENTED_EDGE('',*,*,#373,.T.);
#274=ORIENTED_EDGE('',*,*,#374,.T.);
#275=ORIENTED_EDGE('',*,*,#335,.F.);
#276=ORIENTED_EDGE('',*,*,#351,.F.);
#277=ORIENTED_EDGE('',*,*,#371,.F.);
#278=ORIENTED_EDGE('',*,*,#362,.F.);
#279=ORIENTED_EDGE('',*,*,#336,.F.);
#280=ORIENTED_EDGE('',*,*,#374,.F.);
#281=ORIENTED_EDGE('',*,*,#372,.F.);
#282=ORIENTED_EDGE('',*,*,#349,.T.);
#283=ORIENTED_EDGE('',*,*,#375,.F.);
#284=ORIENTED_EDGE('',*,*,#376,.F.);
#285=ORIENTED_EDGE('',*,*,#377,.F.);
#286=ORIENTED_EDGE('',*,*,#355,.T.);
#287=ORIENTED_EDGE('',*,*,#344,.T.);
#288=ORIENTED_EDGE('',*,*,#378,.F.);
#289=ORIENTED_EDGE('',*,*,#343,.F.);
#290=ORIENTED_EDGE('',*,*,#352,.T.);
#291=ORIENTED_EDGE('',*,*,#377,.T.);
#292=ORIENTED_EDGE('',*,*,#379,.F.);
#293=ORIENTED_EDGE('',*,*,#332,.F.);
#294=ORIENTED_EDGE('',*,*,#378,.T.);
#295=ORIENTED_EDGE('',*,*,#376,.T.);
#296=ORIENTED_EDGE('',*,*,#348,.T.);
#297=ORIENTED_EDGE('',*,*,#333,.F.);
#298=ORIENTED_EDGE('',*,*,#379,.T.);
#299=ORIENTED_EDGE('',*,*,#375,.T.);
#300=VERTEX_POINT('',#508);
#301=VERTEX_POINT('',#509);
#302=VERTEX_POINT('',#511);
#303=VERTEX_POINT('',#513);
#304=VERTEX_POINT('',#515);
#305=VERTEX_POINT('',#517);
#306=VERTEX_POINT('',#519);
#307=VERTEX_POINT('',#521);
#308=VERTEX_POINT('',#523);
#309=VERTEX_POINT('',#525);
#310=VERTEX_POINT('',#527);
#311=VERTEX_POINT('',#529);
#312=VERTEX_POINT('',#533);
#313=VERTEX_POINT('',#534);
#314=VERTEX_POINT('',#536);
#315=VERTEX_POINT('',#538);
#316=VERTEX_POINT('',#542);
#317=VERTEX_POINT('',#545);
#318=VERTEX_POINT('',#549);
#319=VERTEX_POINT('',#551);
#320=VERTEX_POINT('',#556);
#321=VERTEX_POINT('',#560);
#322=VERTEX_POINT('',#561);
#323=VERTEX_POINT('',#563);
#324=VERTEX_POINT('',#565);
#325=VERTEX_POINT('',#570);
#326=VERTEX_POINT('',#574);
#327=VERTEX_POINT('',#576);
#328=VERTEX_POINT('',#578);
#329=VERTEX_POINT('',#585);
#330=VERTEX_POINT('',#595);
#331=VERTEX_POINT('',#597);
#332=EDGE_CURVE('',#300,#301,#380,.T.);
#333=EDGE_CURVE('',#301,#302,#120,.T.);
#334=EDGE_CURVE('',#302,#303,#121,.T.);
#335=EDGE_CURVE('',#303,#304,#381,.T.);
#336=EDGE_CURVE('',#304,#305,#122,.T.);
#337=EDGE_CURVE('',#306,#305,#123,.T.);
#338=EDGE_CURVE('',#306,#307,#124,.T.);
#339=EDGE_CURVE('',#308,#307,#125,.T.);
#340=EDGE_CURVE('',#308,#309,#126,.T.);
#341=EDGE_CURVE('',#310,#309,#127,.T.);
#342=EDGE_CURVE('',#310,#311,#128,.T.);
#343=EDGE_CURVE('',#311,#300,#129,.T.);
#344=EDGE_CURVE('',#312,#313,#382,.T.);
#345=EDGE_CURVE('',#312,#314,#130,.T.);
#346=EDGE_CURVE('',#315,#314,#383,.T.);
#347=EDGE_CURVE('',#313,#315,#131,.T.);
#348=EDGE_CURVE('',#316,#302,#132,.T.);
#349=EDGE_CURVE('',#313,#316,#133,.T.);
#350=EDGE_CURVE('',#317,#315,#134,.T.);
#351=EDGE_CURVE('',#317,#303,#135,.T.);
#352=EDGE_CURVE('',#311,#318,#136,.T.);
#353=EDGE_CURVE('',#319,#310,#137,.T.);
#354=EDGE_CURVE('',#314,#319,#138,.T.);
#355=EDGE_CURVE('',#318,#312,#139,.T.);
#356=EDGE_CURVE('',#309,#320,#140,.T.);
#357=EDGE_CURVE('',#320,#319,#141,.T.);
#358=EDGE_CURVE('',#321,#322,#142,.T.);
#359=EDGE_CURVE('',#323,#322,#143,.T.);
#360=EDGE_CURVE('',#324,#323,#144,.T.);
#361=EDGE_CURVE('',#324,#306,#145,.T.);
#362=EDGE_CURVE('',#305,#321,#146,.T.);
#363=EDGE_CURVE('',#325,#308,#147,.T.);
#364=EDGE_CURVE('',#320,#325,#148,.T.);
#365=EDGE_CURVE('',#307,#326,#149,.T.);
#366=EDGE_CURVE('',#327,#326,#150,.T.);
#367=EDGE_CURVE('',#327,#328,#151,.T.);
#368=EDGE_CURVE('',#328,#325,#152,.T.);
#369=EDGE_CURVE('',#323,#327,#153,.T.);
#370=EDGE_CURVE('',#322,#328,#154,.T.);
#371=EDGE_CURVE('',#329,#317,#384,.T.);
#372=EDGE_CURVE('',#321,#329,#155,.T.);
#373=EDGE_CURVE('',#324,#326,#156,.T.);
#374=EDGE_CURVE('',#329,#304,#157,.T.);
#375=EDGE_CURVE('',#330,#316,#158,.T.);
#376=EDGE_CURVE('',#331,#330,#385,.T.);
#377=EDGE_CURVE('',#318,#331,#159,.T.);
#378=EDGE_CURVE('',#300,#331,#160,.T.);
#379=EDGE_CURVE('',#301,#330,#161,.T.);
#380=CIRCLE('',#387,0.763164631729129);
#381=CIRCLE('',#388,2.);
#382=CIRCLE('',#390,0.8);
#383=CIRCLE('',#391,0.8);
#384=CIRCLE('',#400,2.);
#385=CIRCLE('',#406,0.312545293215469);
#386=AXIS2_PLACEMENT_3D('',#506,#412,#413);
#387=AXIS2_PLACEMENT_3D('',#507,#414,#415);
#388=AXIS2_PLACEMENT_3D('',#514,#418,#419);
#389=AXIS2_PLACEMENT_3D('',#531,#428,#429);
#390=AXIS2_PLACEMENT_3D('',#532,#430,#431);
#391=AXIS2_PLACEMENT_3D('',#537,#433,#434);
#392=AXIS2_PLACEMENT_3D('',#540,#436,#437);
#393=AXIS2_PLACEMENT_3D('',#547,#442,#443);
#394=AXIS2_PLACEMENT_3D('',#554,#448,#449);
#395=AXIS2_PLACEMENT_3D('',#558,#452,#453);
#396=AXIS2_PLACEMENT_3D('',#568,#459,#460);
#397=AXIS2_PLACEMENT_3D('',#572,#463,#464);
#398=AXIS2_PLACEMENT_3D('',#580,#469,#470);
#399=AXIS2_PLACEMENT_3D('',#583,#473,#474);
#400=AXIS2_PLACEMENT_3D('',#584,#475,#476);
#401=AXIS2_PLACEMENT_3D('',#587,#478,#479);
#402=AXIS2_PLACEMENT_3D('',#589,#481,#482);
#403=AXIS2_PLACEMENT_3D('',#590,#483,#484);
#404=AXIS2_PLACEMENT_3D('',#592,#486,#487);
#405=AXIS2_PLACEMENT_3D('',#593,#488,#489);
#406=AXIS2_PLACEMENT_3D('',#596,#491,#492);
#407=AXIS2_PLACEMENT_3D('',#599,#494,#495);
#408=AXIS2_PLACEMENT_3D('',#601,#497,#498);
#409=AXIS2_PLACEMENT_3D('',#603,#500,#501);
#410=AXIS2_PLACEMENT_3D('',#604,#502,#503);
#411=AXIS2_PLACEMENT_3D('',#605,#504,#505);
#412=DIRECTION('',(0.,0.,1.));
#413=DIRECTION('',(1.,0.,0.));
#414=DIRECTION('',(0.,0.,-1.));
#415=DIRECTION('',(1.,0.,0.));
#416=DIRECTION('',(-1.,1.32811600787865E-15,0.));
#417=DIRECTION('',(0.17364817766693,-0.984807753012208,0.));
#418=DIRECTION('',(0.,0.,1.));
#419=DIRECTION('',(1.,0.,0.));
#420=DIRECTION('',(0.707106781186548,-0.707106781186547,0.));
#421=DIRECTION('',(-1.,-1.60128320859398E-16,0.));
#422=DIRECTION('',(2.25365784913226E-16,1.,0.));
#423=DIRECTION('',(1.,8.00641604296988E-17,0.));
#424=DIRECTION('',(-0.819152044288992,0.573576436351045,0.));
#425=DIRECTION('',(0.173648177666934,-0.984807753012208,0.));
#426=DIRECTION('',(-1.,-1.60128320859398E-16,0.));
#427=DIRECTION('',(0.17364817766693,-0.984807753012208,0.));
#428=DIRECTION('',(0.,0.,1.));
#429=DIRECTION('',(1.,1.59594559789866E-16,0.));
#430=DIRECTION('',(0.,0.,1.));
#431=DIRECTION('',(1.,0.,0.));
#432=DIRECTION('',(0.,0.,-1.));
#433=DIRECTION('',(0.,0.,-1.));
#434=DIRECTION('',(-1.,0.,0.));
#435=DIRECTION('',(0.,0.,-1.));
#436=DIRECTION('',(0.,0.,1.));
#437=DIRECTION('',(1.,0.,0.));
#438=DIRECTION('',(0.0214838936184785,-0.121841215293078,0.992317066552267));
#439=DIRECTION('',(0.17364817766693,-0.984807753012208,0.));
#440=DIRECTION('',(-0.17364817766693,0.984807753012208,0.));
#441=DIRECTION('',(0.,0.,1.));
#442=DIRECTION('',(0.984807753012208,0.17364817766693,0.));
#443=DIRECTION('',(0.17364817766693,-0.984807753012208,0.));
#444=DIRECTION('',(-0.123720812433092,-1.98112059502715E-17,-0.992317066552267));
#445=DIRECTION('',(0.,0.,1.));
#446=DIRECTION('',(1.,1.60128320859398E-16,0.));
#447=DIRECTION('',(-1.,-1.60128320859398E-16,0.));
#448=DIRECTION('',(1.60128320859398E-16,-1.,0.));
#449=DIRECTION('',(0.,0.,1.));
#450=DIRECTION('',(0.,0.,-1.));
#451=DIRECTION('',(-0.173648177666934,0.984807753012207,0.));
#452=DIRECTION('',(0.984807753012208,0.173648177666934,0.));
#453=DIRECTION('',(0.173648177666934,-0.984807753012208,0.));
#454=DIRECTION('',(1.,1.60128320859398E-16,0.));
#455=DIRECTION('',(0.,0.,-1.));
#456=DIRECTION('',(1.,1.60128320859398E-16,0.));
#457=DIRECTION('',(-0.707106781186547,-1.13227821539695E-16,-0.707106781186548));
#458=DIRECTION('',(0.,0.,-1.));
#459=DIRECTION('',(1.60128320859398E-16,-1.,0.));
#460=DIRECTION('',(0.,0.,1.));
#461=DIRECTION('',(0.,0.,1.));
#462=DIRECTION('',(0.819152044288992,-0.573576436351045,0.));
#463=DIRECTION('',(0.573576436351045,0.819152044288992,0.));
#464=DIRECTION('',(0.,0.,-1.));
#465=DIRECTION('',(0.707106781186547,5.66139107698476E-17,0.707106781186548));
#466=DIRECTION('',(-1.,-8.00641604296988E-17,0.));
#467=DIRECTION('',(0.,0.,-1.));
#468=DIRECTION('',(-1.,-8.00641604296988E-17,0.));
#469=DIRECTION('',(-8.00641604296988E-17,1.,0.));
#470=DIRECTION('',(1.,7.97972798949331E-17,0.));
#471=DIRECTION('',(-1.60128320859398E-16,1.,0.));
#472=DIRECTION('',(-1.60128320859398E-16,1.,0.));
#473=DIRECTION('',(1.,1.60128320859398E-16,0.));
#474=DIRECTION('',(0.,0.,-1.));
#475=DIRECTION('',(0.,0.,-1.));
#476=DIRECTION('',(-1.,0.,0.));
#477=DIRECTION('',(-0.707106781186548,0.707106781186547,0.));
#478=DIRECTION('',(0.,0.,-1.));
#479=DIRECTION('',(-1.,-1.59594559789866E-16,0.));
#480=DIRECTION('',(2.25365784913226E-16,1.,0.));
#481=DIRECTION('',(0.,0.,-1.));
#482=DIRECTION('',(-1.,-1.59594559789866E-16,0.));
#483=DIRECTION('',(0.707106781186548,-1.59357674759571E-16,-0.707106781186547));
#484=DIRECTION('',(-0.707106781186547,-1.14491749414469E-16,-0.707106781186548));
#485=DIRECTION('',(0.,0.,1.));
#486=DIRECTION('',(0.,0.,1.));
#487=DIRECTION('',(1.,0.,0.));
#488=DIRECTION('',(0.707106781186547,0.707106781186548,0.));
#489=DIRECTION('',(0.707106781186548,-0.707106781186547,0.));
#490=DIRECTION('',(-1.,1.32811600787865E-15,0.));
#491=DIRECTION('',(0.,0.,-1.));
#492=DIRECTION('',(0.999999999999998,0.,0.));
#493=DIRECTION('',(0.17364817766693,-0.984807753012208,0.));
#494=DIRECTION('',(0.,0.,1.));
#495=DIRECTION('',(1.,1.59594559789866E-16,0.));
#496=DIRECTION('',(-0.120017874239896,-0.0211623893957691,-0.992546151641322));
#497=DIRECTION('',(-0.977467145358805,-0.17235383048284,0.121869343405147));
#498=DIRECTION('',(-0.17364817766693,0.984807753012208,0.));
#499=DIRECTION('',(1.61856625846036E-16,0.121869343405147,-0.992546151641322));
#500=DIRECTION('',(0.,0.,1.));
#501=DIRECTION('',(1.,1.55015490009515E-16,-2.32523235014273E-16));
#502=DIRECTION('',(1.31821643255319E-15,0.992546151641322,0.121869343405147));
#503=DIRECTION('',(-1.90819582357449E-17,0.121869343405147,-0.992546151641322));
#504=DIRECTION('',(0.,0.,1.));
#505=DIRECTION('',(-0.173648176153277,0.984807753279106,0.));
#506=CARTESIAN_POINT('',(0.,0.,0.));
#507=CARTESIAN_POINT('',(10.3980500953845,11.275,-0.3));
#508=CARTESIAN_POINT('',(11.149620541536,11.4075221475596,-0.3));
#509=CARTESIAN_POINT('',(10.3980500953845,10.5118353682709,-0.300000000000001));
#510=CARTESIAN_POINT('',(-1.26013833327875E-14,10.5118353682709,-0.3));
#511=CARTESIAN_POINT('',(2.26953656452419,10.5118353682709,-0.300000000000002));
#512=CARTESIAN_POINT('',(0.865657928962443,18.473626751082,-0.300000000000002));
#513=CARTESIAN_POINT('',(2.60293879082928,8.62101738360678,-0.300000000000002));
#514=CARTESIAN_POINT('',(4.57255429685369,8.96831373894064,-0.300000000000002));
#515=CARTESIAN_POINT('',(3.1583407344806,7.55410017656754,-0.300000000000002));
#516=CARTESIAN_POINT('',(3.1583407344806,7.55410017656754,-0.300000000000002));
#517=CARTESIAN_POINT('',(6.71244091104814,4.00000000000002,-0.3));
#518=CARTESIAN_POINT('',(80.,4.00000000000003,-0.3));
#519=CARTESIAN_POINT('',(17.7,4.00000000000002,-0.3));
#520=CARTESIAN_POINT('',(17.7,20.,-0.3));
#521=CARTESIAN_POINT('',(17.7,16.,-0.3));
#522=CARTESIAN_POINT('',(15.,16.,-0.3));
#523=CARTESIAN_POINT('',(17.,16.,-0.3));
#524=CARTESIAN_POINT('',(14.7182872358884,17.5976724774602,-0.3));
#525=CARTESIAN_POINT('',(14.7182872358884,17.5976724774602,-0.3));
#526=CARTESIAN_POINT('',(14.2946920771661,20.,-0.3));
#527=CARTESIAN_POINT('',(14.3982761919164,19.4125452932155,-0.3));
#528=CARTESIAN_POINT('',(87.7891939646743,19.4125452932155,-0.300000000000002));
#529=CARTESIAN_POINT('',(9.73811897976117,19.4125452932155,-0.299999999999998));
#530=CARTESIAN_POINT('',(9.34401809118307,21.6476024977036,-0.3));
#531=CARTESIAN_POINT('',(0.,20.,-0.3));
#532=CARTESIAN_POINT('',(1.65350413137221,18.6125452932155,-3.97));
#533=CARTESIAN_POINT('',(1.65350413137221,19.4125452932155,-3.97));
#534=CARTESIAN_POINT('',(0.865657928962444,18.4736267510819,-3.97));
#535=CARTESIAN_POINT('',(1.65350413137221,19.4125452932155,-30.));
#536=CARTESIAN_POINT('',(1.65350413137221,19.4125452932155,-12.));
#537=CARTESIAN_POINT('',(1.65350413137221,18.6125452932155,-12.));
#538=CARTESIAN_POINT('',(0.865657928962444,18.4736267510819,-12.));
#539=CARTESIAN_POINT('',(0.865657928962444,18.4736267510819,-30.));
#540=CARTESIAN_POINT('',(1.65350413137221,18.6125452932155,-30.));
#541=CARTESIAN_POINT('',(1.61487824115149,14.2245872156759,-30.537937246369));
#542=CARTESIAN_POINT('',(2.19008021711523,10.9624547067845,-3.97));
#543=CARTESIAN_POINT('',(0.865657928962443,18.473626751082,-3.97));
#544=CARTESIAN_POINT('',(0.865657928962443,18.473626751082,-12.));
#545=CARTESIAN_POINT('',(2.60293879082928,8.62101738360678,-12.));
#546=CARTESIAN_POINT('',(2.60293879082928,8.62101738360678,-30.));
#547=CARTESIAN_POINT('',(0.865657928962443,18.473626751082,-30.));
#548=CARTESIAN_POINT('',(7.28655712397167,19.4125452932155,-19.963035033205));
#549=CARTESIAN_POINT('',(9.28054811160404,19.4125452932155,-3.97));
#550=CARTESIAN_POINT('',(14.3982761919164,19.4125452932155,-30.));
#551=CARTESIAN_POINT('',(14.3982761919164,19.4125452932155,-12.));
#552=CARTESIAN_POINT('',(87.7891939646743,19.4125452932155,-12.));
#553=CARTESIAN_POINT('',(87.7891939646743,19.4125452932155,-3.97));
#554=CARTESIAN_POINT('',(87.7891939646743,19.4125452932155,-30.));
#555=CARTESIAN_POINT('',(14.7182872358884,17.5976724774602,0.));
#556=CARTESIAN_POINT('',(14.7182872358884,17.5976724774602,-12.));
#557=CARTESIAN_POINT('',(14.2946920771661,20.,-12.));
#558=CARTESIAN_POINT('',(14.2946920771661,20.,-12.));
#559=CARTESIAN_POINT('',(80.,4.00000000000003,-12.));
#560=CARTESIAN_POINT('',(6.71244091104814,4.00000000000002,-12.));
#561=CARTESIAN_POINT('',(80.,4.00000000000003,-12.));
#562=CARTESIAN_POINT('',(80.,4.00000000000003,-12.));
#563=CARTESIAN_POINT('',(80.,4.00000000000003,0.));
#564=CARTESIAN_POINT('',(80.,4.00000000000003,0.));
#565=CARTESIAN_POINT('',(18.,4.00000000000002,0.));
#566=CARTESIAN_POINT('',(43.,4.00000000000003,25.));
#567=CARTESIAN_POINT('',(6.71244091104813,4.00000000000002,-30.));
#568=CARTESIAN_POINT('',(80.,4.00000000000003,-12.));
#569=CARTESIAN_POINT('',(17.,16.,-12.));
#570=CARTESIAN_POINT('',(17.,16.,-12.));
#571=CARTESIAN_POINT('',(14.7182872358884,17.5976724774602,-12.));
#572=CARTESIAN_POINT('',(14.7182872358884,17.5976724774602,-12.));
#573=CARTESIAN_POINT('',(10.5,16.,-7.50000000000001));
#574=CARTESIAN_POINT('',(18.,16.,0.));
#575=CARTESIAN_POINT('',(15.,16.,0.));
#576=CARTESIAN_POINT('',(80.,16.,0.));
#577=CARTESIAN_POINT('',(80.,16.,-12.));
#578=CARTESIAN_POINT('',(80.,16.,-12.));
#579=CARTESIAN_POINT('',(15.,16.,-12.));
#580=CARTESIAN_POINT('',(15.,16.,-12.));
#581=CARTESIAN_POINT('',(80.,16.,0.));
#582=CARTESIAN_POINT('',(80.,16.,-12.));
#583=CARTESIAN_POINT('',(80.,16.,-12.));
#584=CARTESIAN_POINT('',(4.57255429685369,8.96831373894064,-12.));
#585=CARTESIAN_POINT('',(3.1583407344806,7.55410017656754,-12.));
#586=CARTESIAN_POINT('',(3.1583407344806,7.55410017656754,-12.));
#587=CARTESIAN_POINT('',(0.,20.,-12.));
#588=CARTESIAN_POINT('',(18.,21.,0.));
#589=CARTESIAN_POINT('',(0.,20.,0.));
#590=CARTESIAN_POINT('',(18.,21.,0.));
#591=CARTESIAN_POINT('',(3.1583407344806,7.55410017656754,-30.));
#592=CARTESIAN_POINT('',(4.57255429685369,8.96831373894064,-30.));
#593=CARTESIAN_POINT('',(3.1583407344806,7.55410017656754,-30.));
#594=CARTESIAN_POINT('',(10.3980500953845,10.9624547067845,-3.97));
#595=CARTESIAN_POINT('',(10.3980500953845,10.9624547067846,-3.97));
#596=CARTESIAN_POINT('',(10.3980500953845,11.275,-3.97));
#597=CARTESIAN_POINT('',(10.7058471233105,11.3292729206053,-3.97));
#598=CARTESIAN_POINT('',(9.08658843282473,20.5125452932155,-3.97));
#599=CARTESIAN_POINT('',(0.953402874075368,19.2,-3.97));
#600=CARTESIAN_POINT('',(10.7058471233105,11.3292729206053,-3.97));
#601=CARTESIAN_POINT('',(9.08658843282473,20.5125452932155,-3.97));
#602=CARTESIAN_POINT('',(10.3980500953845,10.9624547067845,-3.97));
#603=CARTESIAN_POINT('',(10.3980500953845,11.275,-3.97));
#604=CARTESIAN_POINT('',(10.3980500953845,10.9624547067845,-3.97));
#605=CARTESIAN_POINT('',(5.67572648472993,15.2375,1.34267597040605E-15));
#606=(
GEOMETRIC_REPRESENTATION_CONTEXT(3)
GLOBAL_UNCERTAINTY_ASSIGNED_CONTEXT((#608))
GLOBAL_UNIT_ASSIGNED_CONTEXT((#615,#611,#610))
REPRESENTATION_CONTEXT('SCACL-1212-F09','TOP_LEVEL_ASSEMBLY_PART')
);
#607=(
GEOMETRIC_REPRESENTATION_CONTEXT(3)
GLOBAL_UNCERTAINTY_ASSIGNED_CONTEXT((#609))
GLOBAL_UNIT_ASSIGNED_CONTEXT((#615,#611,#610))
REPRESENTATION_CONTEXT('CCMT 09T308','COMPONENT_PART')
);
#608=UNCERTAINTY_MEASURE_WITH_UNIT(LENGTH_MEASURE(2.E-5),#615,
'DISTANCE_ACCURACY_VALUE','Maximum Tolerance applied to model');
#609=UNCERTAINTY_MEASURE_WITH_UNIT(LENGTH_MEASURE(2.E-8),#615,
'DISTANCE_ACCURACY_VALUE','Maximum Tolerance applied to model');
#610=(
NAMED_UNIT(*)
SI_UNIT($,.STERADIAN.)
SOLID_ANGLE_UNIT()
);
#611=(
CONVERSION_BASED_UNIT('DEGREE',#613)
NAMED_UNIT(#612)
PLANE_ANGLE_UNIT()
);
#612=DIMENSIONAL_EXPONENTS(0.,0.,0.,0.,0.,0.,0.);
#613=PLANE_ANGLE_MEASURE_WITH_UNIT(PLANE_ANGLE_MEASURE(0.0174532925),#614);
#614=(
NAMED_UNIT(*)
PLANE_ANGLE_UNIT()
SI_UNIT($,.RADIAN.)
);
#615=(
LENGTH_UNIT()
NAMED_UNIT(*)
SI_UNIT(.MILLI.,.METRE.)
);
ENDSEC;
END-ISO-10303-21;
