ISO-10303-21;
HEADER;
/* Generated by software containing ST-Developer
 * from STEP Tools, Inc. (www.steptools.com) 
 */
/* OPTION: using custom schema-name function */

FILE_DESCRIPTION(
/* description */ (''),
/* implementation_level */ '2;1');

FILE_NAME(
/* name */ 'model1.stp',
/* time_stamp */ '2023-10-07T20:01:41+03:00',
/* author */ (''),
/* organization */ (''),
/* preprocessor_version */ 'ST-DEVELOPER v19.4',
/* originating_system */ 'SIEMENS PLM Software NX2306.3001',
/* authorisation */ '');

FILE_SCHEMA (('AUTOMOTIVE_DESIGN { 1 0 10303 214 3 1 1 1 }'));
ENDSEC;

DATA;
#10=SHAPE_REPRESENTATION_RELATIONSHIP('None',
'relationship between model1-None and model1-None',#22,#11);
#11=ADVANCED_BREP_SHAPE_REPRESENTATION('model1-None',(#42,#43),#446);
#12=SHAPE_DEFINITION_REPRESENTATION(#13,#22);
#13=PRODUCT_DEFINITION_SHAPE('','',#14);
#14=PRODUCT_DEFINITION(' ','',#16,#15);
#15=PRODUCT_DEFINITION_CONTEXT('part definition',#21,'design');
#16=PRODUCT_DEFINITION_FORMATION_WITH_SPECIFIED_SOURCE(' ',' ',#18,
 .NOT_KNOWN.);
#17=PRODUCT_RELATED_PRODUCT_CATEGORY('part','',(#18));
#18=PRODUCT('model1','model1',' ',(#19));
#19=PRODUCT_CONTEXT(' ',#21,'mechanical');
#20=APPLICATION_PROTOCOL_DEFINITION('international standard',
'automotive_design',2010,#21);
#21=APPLICATION_CONTEXT(
'core data for automotive mechanical design processes');
#22=SHAPE_REPRESENTATION('model1-None',(#274),#446);
#23=DRAUGHTING_PRE_DEFINED_COLOUR('yellow');
#24=FACE_BOUND('',#108,.T.);
#25=FACE_BOUND('',#109,.T.);
#26=PRESENTATION_LAYER_ASSIGNMENT('1','Layer 1',(#42,#43));
#27=STYLED_ITEM('',(#29),#42);
#28=STYLED_ITEM('',(#30),#43);
#29=PRESENTATION_STYLE_ASSIGNMENT((#31));
#30=PRESENTATION_STYLE_ASSIGNMENT((#32));
#31=SURFACE_STYLE_USAGE(.BOTH.,#33);
#32=SURFACE_STYLE_USAGE(.BOTH.,#34);
#33=SURFACE_SIDE_STYLE('',(#35));
#34=SURFACE_SIDE_STYLE('',(#36));
#35=SURFACE_STYLE_FILL_AREA(#37);
#36=SURFACE_STYLE_FILL_AREA(#38);
#37=FILL_AREA_STYLE('',(#39));
#38=FILL_AREA_STYLE('',(#40));
#39=FILL_AREA_STYLE_COLOUR('',#41);
#40=FILL_AREA_STYLE_COLOUR('',#23);
#41=COLOUR_RGB('light gray',0.8,0.8,0.8);
#42=MANIFOLD_SOLID_BREP('',#44);
#43=MANIFOLD_SOLID_BREP('',#45);
#44=CLOSED_SHELL('',(#55,#56,#57,#58,#59,#60,#61,#62,#63,#64,#65,#66));
#45=CLOSED_SHELL('',(#67,#68,#69));
#46=CONICAL_SURFACE('',#289,2.70777274505108,7.);
#47=CONICAL_SURFACE('',#293,3.,7.);
#48=CYLINDRICAL_SURFACE('',#278,2.65777274505109);
#49=CIRCLE('',#276,2.65777274505109);
#50=CIRCLE('',#277,2.65777274505109);
#51=CIRCLE('',#285,2.96316463172913);
#52=CIRCLE('',#288,2.70777274505108);
#53=CIRCLE('',#291,2.70777274505108);
#54=CIRCLE('',#292,3.);
#55=ADVANCED_FACE('',(#82),#70,.T.);
#56=ADVANCED_FACE('',(#83),#48,.T.);
#57=ADVANCED_FACE('',(#84),#71,.F.);
#58=ADVANCED_FACE('',(#85),#72,.T.);
#59=ADVANCED_FACE('',(#86),#73,.T.);
#60=ADVANCED_FACE('',(#87),#74,.T.);
#61=ADVANCED_FACE('',(#88),#75,.T.);
#62=ADVANCED_FACE('',(#89),#76,.F.);
#63=ADVANCED_FACE('',(#90),#77,.T.);
#64=ADVANCED_FACE('',(#91),#78,.F.);
#65=ADVANCED_FACE('',(#92),#46,.F.);
#66=ADVANCED_FACE('',(#93),#79,.T.);
#67=ADVANCED_FACE('',(#24,#25),#47,.T.);
#68=ADVANCED_FACE('',(#94),#80,.T.);
#69=ADVANCED_FACE('',(#95),#81,.F.);
#70=PLANE('',#275);
#71=PLANE('',#279);
#72=PLANE('',#280);
#73=PLANE('',#281);
#74=PLANE('',#282);
#75=PLANE('',#283);
#76=PLANE('',#284);
#77=PLANE('',#286);
#78=PLANE('',#287);
#79=PLANE('',#290);
#80=PLANE('',#294);
#81=PLANE('',#295);
#82=FACE_OUTER_BOUND('',#96,.T.);
#83=FACE_OUTER_BOUND('',#97,.T.);
#84=FACE_OUTER_BOUND('',#98,.T.);
#85=FACE_OUTER_BOUND('',#99,.T.);
#86=FACE_OUTER_BOUND('',#100,.T.);
#87=FACE_OUTER_BOUND('',#101,.T.);
#88=FACE_OUTER_BOUND('',#102,.T.);
#89=FACE_OUTER_BOUND('',#103,.T.);
#90=FACE_OUTER_BOUND('',#104,.T.);
#91=FACE_OUTER_BOUND('',#105,.T.);
#92=FACE_OUTER_BOUND('',#106,.T.);
#93=FACE_OUTER_BOUND('',#107,.T.);
#94=FACE_OUTER_BOUND('',#110,.T.);
#95=FACE_OUTER_BOUND('',#111,.T.);
#96=EDGE_LOOP('',(#114,#115,#116,#117,#118,#119,#120,#121));
#97=EDGE_LOOP('',(#122,#123,#124,#125));
#98=EDGE_LOOP('',(#126,#127,#128,#129,#130,#131));
#99=EDGE_LOOP('',(#132,#133,#134,#135,#136));
#100=EDGE_LOOP('',(#137,#138,#139,#140));
#101=EDGE_LOOP('',(#141,#142,#143,#144));
#102=EDGE_LOOP('',(#145,#146,#147,#148));
#103=EDGE_LOOP('',(#149,#150,#151,#152,#153,#154));
#104=EDGE_LOOP('',(#155,#156,#157,#158));
#105=EDGE_LOOP('',(#159,#160,#161,#162,#163));
#106=EDGE_LOOP('',(#164,#165,#166,#167));
#107=EDGE_LOOP('',(#168,#169,#170,#171));
#108=EDGE_LOOP('',(#172));
#109=EDGE_LOOP('',(#173));
#110=EDGE_LOOP('',(#174));
#111=EDGE_LOOP('',(#175));
#112=B_SPLINE_CURVE_WITH_KNOTS('',3,(#379,#380,#381,#382),.UNSPECIFIED.,
 .F.,.F.,(4,4),(0.,1.),.UNSPECIFIED.);
#113=B_SPLINE_CURVE_WITH_KNOTS('',3,(#390,#391,#392,#393,#394,#395,#396,
#397,#398,#399,#400,#401,#402),.UNSPECIFIED.,.F.,.F.,(4,3,3,3,4),(0.,0.0939411640300364,
0.290671191078563,0.577600597442553,1.),.UNSPECIFIED.);
#114=ORIENTED_EDGE('',*,*,#197,.T.);
#115=ORIENTED_EDGE('',*,*,#198,.F.);
#116=ORIENTED_EDGE('',*,*,#199,.F.);
#117=ORIENTED_EDGE('',*,*,#200,.T.);
#118=ORIENTED_EDGE('',*,*,#201,.T.);
#119=ORIENTED_EDGE('',*,*,#202,.T.);
#120=ORIENTED_EDGE('',*,*,#203,.T.);
#121=ORIENTED_EDGE('',*,*,#204,.T.);
#122=ORIENTED_EDGE('',*,*,#205,.F.);
#123=ORIENTED_EDGE('',*,*,#202,.F.);
#124=ORIENTED_EDGE('',*,*,#206,.F.);
#125=ORIENTED_EDGE('',*,*,#207,.T.);
#126=ORIENTED_EDGE('',*,*,#208,.F.);
#127=ORIENTED_EDGE('',*,*,#209,.F.);
#128=ORIENTED_EDGE('',*,*,#207,.F.);
#129=ORIENTED_EDGE('',*,*,#210,.F.);
#130=ORIENTED_EDGE('',*,*,#211,.T.);
#131=ORIENTED_EDGE('',*,*,#212,.F.);
#132=ORIENTED_EDGE('',*,*,#213,.T.);
#133=ORIENTED_EDGE('',*,*,#214,.T.);
#134=ORIENTED_EDGE('',*,*,#199,.T.);
#135=ORIENTED_EDGE('',*,*,#215,.F.);
#136=ORIENTED_EDGE('',*,*,#216,.T.);
#137=ORIENTED_EDGE('',*,*,#217,.T.);
#138=ORIENTED_EDGE('',*,*,#218,.F.);
#139=ORIENTED_EDGE('',*,*,#213,.F.);
#140=ORIENTED_EDGE('',*,*,#219,.T.);
#141=ORIENTED_EDGE('',*,*,#215,.T.);
#142=ORIENTED_EDGE('',*,*,#198,.T.);
#143=ORIENTED_EDGE('',*,*,#220,.F.);
#144=ORIENTED_EDGE('',*,*,#221,.T.);
#145=ORIENTED_EDGE('',*,*,#214,.F.);
#146=ORIENTED_EDGE('',*,*,#218,.T.);
#147=ORIENTED_EDGE('',*,*,#222,.T.);
#148=ORIENTED_EDGE('',*,*,#200,.F.);
#149=ORIENTED_EDGE('',*,*,#201,.F.);
#150=ORIENTED_EDGE('',*,*,#222,.F.);
#151=ORIENTED_EDGE('',*,*,#217,.F.);
#152=ORIENTED_EDGE('',*,*,#223,.T.);
#153=ORIENTED_EDGE('',*,*,#210,.T.);
#154=ORIENTED_EDGE('',*,*,#206,.T.);
#155=ORIENTED_EDGE('',*,*,#212,.T.);
#156=ORIENTED_EDGE('',*,*,#220,.T.);
#157=ORIENTED_EDGE('',*,*,#197,.F.);
#158=ORIENTED_EDGE('',*,*,#224,.T.);
#159=ORIENTED_EDGE('',*,*,#216,.F.);
#160=ORIENTED_EDGE('',*,*,#221,.F.);
#161=ORIENTED_EDGE('',*,*,#211,.F.);
#162=ORIENTED_EDGE('',*,*,#223,.F.);
#163=ORIENTED_EDGE('',*,*,#219,.F.);
#164=ORIENTED_EDGE('',*,*,#224,.F.);
#165=ORIENTED_EDGE('',*,*,#204,.F.);
#166=ORIENTED_EDGE('',*,*,#225,.T.);
#167=ORIENTED_EDGE('',*,*,#208,.T.);
#168=ORIENTED_EDGE('',*,*,#225,.F.);
#169=ORIENTED_EDGE('',*,*,#203,.F.);
#170=ORIENTED_EDGE('',*,*,#205,.T.);
#171=ORIENTED_EDGE('',*,*,#209,.T.);
#172=ORIENTED_EDGE('',*,*,#226,.F.);
#173=ORIENTED_EDGE('',*,*,#227,.T.);
#174=ORIENTED_EDGE('',*,*,#226,.T.);
#175=ORIENTED_EDGE('',*,*,#227,.F.);
#176=VERTEX_POINT('',#365);
#177=VERTEX_POINT('',#366);
#178=VERTEX_POINT('',#368);
#179=VERTEX_POINT('',#370);
#180=VERTEX_POINT('',#372);
#181=VERTEX_POINT('',#374);
#182=VERTEX_POINT('',#376);
#183=VERTEX_POINT('',#378);
#184=VERTEX_POINT('',#385);
#185=VERTEX_POINT('',#387);
#186=VERTEX_POINT('',#403);
#187=VERTEX_POINT('',#404);
#188=VERTEX_POINT('',#407);
#189=VERTEX_POINT('',#409);
#190=VERTEX_POINT('',#413);
#191=VERTEX_POINT('',#414);
#192=VERTEX_POINT('',#417);
#193=VERTEX_POINT('',#421);
#194=VERTEX_POINT('',#422);
#195=VERTEX_POINT('',#440);
#196=VERTEX_POINT('',#442);
#197=EDGE_CURVE('',#176,#177,#228,.T.);
#198=EDGE_CURVE('',#178,#177,#229,.T.);
#199=EDGE_CURVE('',#179,#178,#230,.T.);
#200=EDGE_CURVE('',#179,#180,#231,.T.);
#201=EDGE_CURVE('',#180,#181,#232,.T.);
#202=EDGE_CURVE('',#181,#182,#233,.T.);
#203=EDGE_CURVE('',#182,#183,#234,.T.);
#204=EDGE_CURVE('',#183,#176,#112,.T.);
#205=EDGE_CURVE('',#182,#184,#49,.T.);
#206=EDGE_CURVE('',#185,#181,#50,.T.);
#207=EDGE_CURVE('',#185,#184,#235,.T.);
#208=EDGE_CURVE('',#186,#187,#113,.T.);
#209=EDGE_CURVE('',#184,#186,#236,.T.);
#210=EDGE_CURVE('',#188,#185,#237,.T.);
#211=EDGE_CURVE('',#188,#189,#238,.T.);
#212=EDGE_CURVE('',#187,#189,#239,.T.);
#213=EDGE_CURVE('',#190,#191,#240,.T.);
#214=EDGE_CURVE('',#191,#179,#241,.T.);
#215=EDGE_CURVE('',#192,#178,#242,.T.);
#216=EDGE_CURVE('',#192,#190,#243,.T.);
#217=EDGE_CURVE('',#193,#194,#244,.T.);
#218=EDGE_CURVE('',#191,#194,#245,.T.);
#219=EDGE_CURVE('',#190,#193,#246,.T.);
#220=EDGE_CURVE('',#189,#177,#247,.T.);
#221=EDGE_CURVE('',#189,#192,#248,.T.);
#222=EDGE_CURVE('',#194,#180,#249,.T.);
#223=EDGE_CURVE('',#193,#188,#250,.T.);
#224=EDGE_CURVE('',#176,#187,#51,.T.);
#225=EDGE_CURVE('',#183,#186,#52,.T.);
#226=EDGE_CURVE('',#195,#195,#53,.T.);
#227=EDGE_CURVE('',#196,#196,#54,.T.);
#228=LINE('',#364,#251);
#229=LINE('',#367,#252);
#230=LINE('',#369,#253);
#231=LINE('',#371,#254);
#232=LINE('',#373,#255);
#233=LINE('',#375,#256);
#234=LINE('',#377,#257);
#235=LINE('',#388,#258);
#236=LINE('',#405,#259);
#237=LINE('',#406,#260);
#238=LINE('',#408,#261);
#239=LINE('',#410,#262);
#240=LINE('',#412,#263);
#241=LINE('',#415,#264);
#242=LINE('',#416,#265);
#243=LINE('',#418,#266);
#244=LINE('',#420,#267);
#245=LINE('',#423,#268);
#246=LINE('',#424,#269);
#247=LINE('',#426,#270);
#248=LINE('',#427,#271);
#249=LINE('',#429,#272);
#250=LINE('',#431,#273);
#251=VECTOR('',#298,1.);
#252=VECTOR('',#299,1.);
#253=VECTOR('',#300,1.);
#254=VECTOR('',#301,1.);
#255=VECTOR('',#302,1.);
#256=VECTOR('',#303,1.);
#257=VECTOR('',#304,1.);
#258=VECTOR('',#311,1.);
#259=VECTOR('',#314,1.);
#260=VECTOR('',#315,1.);
#261=VECTOR('',#316,1.);
#262=VECTOR('',#317,1.);
#263=VECTOR('',#320,1.);
#264=VECTOR('',#321,1.);
#265=VECTOR('',#322,1.);
#266=VECTOR('',#323,0.999999999999999);
#267=VECTOR('',#326,1.);
#268=VECTOR('',#327,1.);
#269=VECTOR('',#328,1.);
#270=VECTOR('',#331,1.);
#271=VECTOR('',#332,1.);
#272=VECTOR('',#335,1.);
#273=VECTOR('',#338,0.999999999999999);
#274=AXIS2_PLACEMENT_3D('',#363,#296,#297);
#275=AXIS2_PLACEMENT_3D('',#383,#305,#306);
#276=AXIS2_PLACEMENT_3D('',#384,#307,#308);
#277=AXIS2_PLACEMENT_3D('',#386,#309,#310);
#278=AXIS2_PLACEMENT_3D('',#389,#312,#313);
#279=AXIS2_PLACEMENT_3D('',#411,#318,#319);
#280=AXIS2_PLACEMENT_3D('',#419,#324,#325);
#281=AXIS2_PLACEMENT_3D('',#425,#329,#330);
#282=AXIS2_PLACEMENT_3D('',#428,#333,#334);
#283=AXIS2_PLACEMENT_3D('',#430,#336,#337);
#284=AXIS2_PLACEMENT_3D('',#432,#339,#340);
#285=AXIS2_PLACEMENT_3D('',#433,#341,#342);
#286=AXIS2_PLACEMENT_3D('',#434,#343,#344);
#287=AXIS2_PLACEMENT_3D('',#435,#345,#346);
#288=AXIS2_PLACEMENT_3D('',#436,#347,#348);
#289=AXIS2_PLACEMENT_3D('',#437,#349,#350);
#290=AXIS2_PLACEMENT_3D('',#438,#351,#352);
#291=AXIS2_PLACEMENT_3D('',#439,#353,#354);
#292=AXIS2_PLACEMENT_3D('',#441,#355,#356);
#293=AXIS2_PLACEMENT_3D('',#443,#357,#358);
#294=AXIS2_PLACEMENT_3D('',#444,#359,#360);
#295=AXIS2_PLACEMENT_3D('',#445,#361,#362);
#296=DIRECTION('',(0.,0.,1.));
#297=DIRECTION('',(1.,0.,0.));
#298=DIRECTION('',(1.,0.,0.));
#299=DIRECTION('',(-0.707106781186547,0.,-0.707106781186548));
#300=DIRECTION('',(-1.,0.,0.));
#301=DIRECTION('',(0.,0.,-1.));
#302=DIRECTION('',(-1.,0.,0.));
#303=DIRECTION('',(0.,0.,1.));
#304=DIRECTION('',(1.,0.,0.));
#305=DIRECTION('',(0.,1.,0.));
#306=DIRECTION('',(0.,0.,-1.));
#307=DIRECTION('',(0.,0.,1.));
#308=DIRECTION('',(1.,0.,0.));
#309=DIRECTION('',(0.,0.,-1.));
#310=DIRECTION('',(1.,0.,0.));
#311=DIRECTION('',(0.,0.,1.));
#312=DIRECTION('',(0.,0.,1.));
#313=DIRECTION('',(1.,0.,0.));
#314=DIRECTION('',(1.,0.,0.));
#315=DIRECTION('',(-1.,0.,0.));
#316=DIRECTION('',(0.,0.,1.));
#317=DIRECTION('',(1.,0.,0.));
#318=DIRECTION('',(0.,1.,0.));
#319=DIRECTION('',(0.,0.,-1.));
#320=DIRECTION('',(1.,0.,0.));
#321=DIRECTION('',(0.,1.,0.));
#322=DIRECTION('',(0.,1.,0.));
#323=DIRECTION('',(0.5,-0.866025403784438,0.));
#324=DIRECTION('',(0.,0.,1.));
#325=DIRECTION('',(1.,0.,0.));
#326=DIRECTION('',(1.,0.,0.));
#327=DIRECTION('',(0.,0.,-1.));
#328=DIRECTION('',(0.,0.,-1.));
#329=DIRECTION('',(0.,-1.,0.));
#330=DIRECTION('',(0.,0.,1.));
#331=DIRECTION('',(0.,1.,0.));
#332=DIRECTION('',(0.447213595499959,-0.774596669241483,0.447213595499959));
#333=DIRECTION('',(-0.707106781186548,0.,0.707106781186547));
#334=DIRECTION('',(0.707106781186547,0.,0.707106781186548));
#335=DIRECTION('',(0.,1.,0.));
#336=DIRECTION('',(1.,0.,0.));
#337=DIRECTION('',(0.,0.,-1.));
#338=DIRECTION('',(-0.5,0.866025403784438,0.));
#339=DIRECTION('',(0.,0.,1.));
#340=DIRECTION('',(1.,0.,0.));
#341=DIRECTION('',(0.,0.,-1.));
#342=DIRECTION('',(1.,0.,0.));
#343=DIRECTION('',(0.,0.,1.));
#344=DIRECTION('',(1.,0.,0.));
#345=DIRECTION('',(0.866025403784438,0.5,0.));
#346=DIRECTION('',(0.5,-0.866025403784438,0.));
#347=DIRECTION('',(0.,0.,-1.));
#348=DIRECTION('',(1.,0.,0.));
#349=DIRECTION('',(0.,0.,1.));
#350=DIRECTION('',(1.,0.,-3.87053582600597E-16));
#351=DIRECTION('',(0.,0.,1.));
#352=DIRECTION('',(1.,0.,0.));
#353=DIRECTION('',(0.,0.,-1.));
#354=DIRECTION('',(-1.,0.,0.));
#355=DIRECTION('',(0.,0.,-1.));
#356=DIRECTION('',(1.,0.,0.));
#357=DIRECTION('',(0.,0.,1.));
#358=DIRECTION('',(1.,-1.10329818764697E-16,0.));
#359=DIRECTION('',(0.,0.,-1.));
#360=DIRECTION('',(-1.,0.,0.));
#361=DIRECTION('',(0.,0.,-1.));
#362=DIRECTION('',(-1.,0.,0.));
#363=CARTESIAN_POINT('',(0.,0.,0.));
#364=CARTESIAN_POINT('',(0.,48.,-0.3));
#365=CARTESIAN_POINT('',(4.32583733343516,48.,-0.3));
#366=CARTESIAN_POINT('',(20.,48.,-0.3));
#367=CARTESIAN_POINT('',(-5.85,48.,-26.15));
#368=CARTESIAN_POINT('',(20.3,48.,0.));
#369=CARTESIAN_POINT('',(0.,48.,0.));
#370=CARTESIAN_POINT('',(300.,48.,0.));
#371=CARTESIAN_POINT('',(300.,48.,-32.));
#372=CARTESIAN_POINT('',(300.,48.,-32.));
#373=CARTESIAN_POINT('',(0.,48.,-32.));
#374=CARTESIAN_POINT('',(2.79688435723354,48.,-32.));
#375=CARTESIAN_POINT('',(2.79688435723354,48.,-35.));
#376=CARTESIAN_POINT('',(2.79688435723354,48.,-2.38));
#377=CARTESIAN_POINT('',(0.,48.,-2.38));
#378=CARTESIAN_POINT('',(3.55635711448811,48.,-2.38));
#379=CARTESIAN_POINT('',(3.55635711448808,48.,-2.37999999999999));
#380=CARTESIAN_POINT('',(3.94191955261864,48.,-1.73480292492727));
#381=CARTESIAN_POINT('',(4.12942657227399,48.,-1.01574113854788));
#382=CARTESIAN_POINT('',(4.32583733343589,48.,-0.300000000000273));
#383=CARTESIAN_POINT('',(0.,48.,-32.));
#384=CARTESIAN_POINT('',(3.,45.35,-2.38));
#385=CARTESIAN_POINT('',(3.,42.6922272549489,-2.38));
#386=CARTESIAN_POINT('',(3.,45.35,-32.));
#387=CARTESIAN_POINT('',(3.,42.6922272549489,-32.));
#388=CARTESIAN_POINT('',(3.,42.6922272549489,-35.));
#389=CARTESIAN_POINT('',(3.,45.35,-35.));
#390=CARTESIAN_POINT('',(3.5179548962073,42.6922272549489,-2.38));
#391=CARTESIAN_POINT('',(3.55566518888199,42.6922272549489,-2.32125162318261));
#392=CARTESIAN_POINT('',(3.59063456515576,42.6922272549489,-2.26070874390701));
#393=CARTESIAN_POINT('',(3.62368322159293,42.6922272549489,-2.19921708382219));
#394=CARTESIAN_POINT('',(3.69298061743944,42.6922272549489,-2.07027956049939));
#395=CARTESIAN_POINT('',(3.75418740675691,42.6922272549489,-1.93693513027996));
#396=CARTESIAN_POINT('',(3.81095326157366,42.6922272549489,-1.80201051533277));
#397=CARTESIAN_POINT('',(3.8937539168803,42.6922272549489,-1.60520476704117));
#398=CARTESIAN_POINT('',(3.96716532115587,42.6922272549489,-1.40440139549227));
#399=CARTESIAN_POINT('',(4.03556986942412,42.6922272549489,-1.20214099685714));
#400=CARTESIAN_POINT('',(4.13627550612179,42.6922272549489,-0.904371875666587));
#401=CARTESIAN_POINT('',(4.22607956477044,42.6922272549489,-0.60287637392725));
#402=CARTESIAN_POINT('',(4.3101865021416,42.6922272549489,-0.3));
#403=CARTESIAN_POINT('',(3.5179548962073,42.6922272549489,-2.38));
#404=CARTESIAN_POINT('',(4.3101865021416,42.6922272549489,-0.3));
#405=CARTESIAN_POINT('',(3.,42.6922272549489,-2.38));
#406=CARTESIAN_POINT('',(3.,42.6922272549489,-32.));
#407=CARTESIAN_POINT('',(20.,42.6922272549489,-32.));
#408=CARTESIAN_POINT('',(20.,42.6922272549489,-35.));
#409=CARTESIAN_POINT('',(20.,42.6922272549489,-0.3));
#410=CARTESIAN_POINT('',(3.,42.6922272549489,-0.3));
#411=CARTESIAN_POINT('',(3.,42.6922272549489,-35.));
#412=CARTESIAN_POINT('',(300.,16.,0.));
#413=CARTESIAN_POINT('',(35.4107645909154,16.,0.));
#414=CARTESIAN_POINT('',(300.,16.,0.));
#415=CARTESIAN_POINT('',(300.,48.,0.));
#416=CARTESIAN_POINT('',(20.3,49.,0.));
#417=CARTESIAN_POINT('',(20.3,42.1726120126783,0.));
#418=CARTESIAN_POINT('',(20.,42.6922272549489,0.));
#419=CARTESIAN_POINT('',(0.,32.,0.));
#420=CARTESIAN_POINT('',(300.,16.,-32.));
#421=CARTESIAN_POINT('',(35.4107645909154,16.,-32.));
#422=CARTESIAN_POINT('',(300.,16.,-32.));
#423=CARTESIAN_POINT('',(300.,16.,-32.));
#424=CARTESIAN_POINT('',(35.4107645909155,16.,-35.));
#425=CARTESIAN_POINT('',(300.,16.,-32.));
#426=CARTESIAN_POINT('',(20.,49.,-0.3));
#427=CARTESIAN_POINT('',(13.06,54.712659859477,-7.24));
#428=CARTESIAN_POINT('',(20.,49.,-0.3));
#429=CARTESIAN_POINT('',(300.,48.,-32.));
#430=CARTESIAN_POINT('',(300.,48.,-32.));
#431=CARTESIAN_POINT('',(20.,42.6922272549489,-32.));
#432=CARTESIAN_POINT('',(0.,32.,-32.));
#433=CARTESIAN_POINT('',(3.,45.35,-0.3));
#434=CARTESIAN_POINT('',(0.,32.,-0.3));
#435=CARTESIAN_POINT('',(20.,42.6922272549489,-35.));
#436=CARTESIAN_POINT('',(3.,45.35,-2.38));
#437=CARTESIAN_POINT('',(3.,45.35,-2.38));
#438=CARTESIAN_POINT('',(3.,45.35,-2.38));
#439=CARTESIAN_POINT('',(3.,45.35,-2.38));
#440=CARTESIAN_POINT('',(0.292227254948915,45.35,-2.38));
#441=CARTESIAN_POINT('',(3.,45.35,0.));
#442=CARTESIAN_POINT('',(6.,45.35,0.));
#443=CARTESIAN_POINT('',(3.,45.35,0.));
#444=CARTESIAN_POINT('',(3.,45.35,-2.38));
#445=CARTESIAN_POINT('',(3.,45.35,0.));
#446=(
GEOMETRIC_REPRESENTATION_CONTEXT(3)
GLOBAL_UNCERTAINTY_ASSIGNED_CONTEXT((#447))
GLOBAL_UNIT_ASSIGNED_CONTEXT((#453,#449,#448))
REPRESENTATION_CONTEXT('model1','TOP_LEVEL_ASSEMBLY_PART')
);
#447=UNCERTAINTY_MEASURE_WITH_UNIT(LENGTH_MEASURE(0.0508),#453,
'DISTANCE_ACCURACY_VALUE','Maximum Tolerance applied to model');
#448=(
NAMED_UNIT(*)
SI_UNIT($,.STERADIAN.)
SOLID_ANGLE_UNIT()
);
#449=(
CONVERSION_BASED_UNIT('DEGREE',#451)
NAMED_UNIT(#450)
PLANE_ANGLE_UNIT()
);
#450=DIMENSIONAL_EXPONENTS(0.,0.,0.,0.,0.,0.,0.);
#451=PLANE_ANGLE_MEASURE_WITH_UNIT(PLANE_ANGLE_MEASURE(0.0174532925),#452);
#452=(
NAMED_UNIT(*)
PLANE_ANGLE_UNIT()
SI_UNIT($,.RADIAN.)
);
#453=(
LENGTH_UNIT()
NAMED_UNIT(*)
SI_UNIT(.MILLI.,.METRE.)
);
ENDSEC;
END-ISO-10303-21;
