ISO-10303-21;
HEADER;
/* Generated by software containing ST-Developer
 * from STEP Tools, Inc. (www.steptools.com) 
 */
/* OPTION: using custom schema-name function */

FILE_DESCRIPTION(
/* description */ (''),
/* implementation_level */ '2;1');

FILE_NAME(
/* name */ 'SRGCR-1616-H06.stp',
/* time_stamp */ '2023-10-13T17:29:04+03:00',
/* author */ (''),
/* organization */ (''),
/* preprocessor_version */ 'ST-DEVELOPER v19.4',
/* originating_system */ 'SIEMENS PLM Software NX2306.3001',
/* authorisation */ '');

FILE_SCHEMA (('AUTOMOTIVE_DESIGN { 1 0 10303 214 3 1 1 1 }'));
ENDSEC;

DATA;
#10=SHAPE_REPRESENTATION_RELATIONSHIP('None',
'relationship between model1-None and model1-None',#22,#11);
#11=ADVANCED_BREP_SHAPE_REPRESENTATION('model1-None',(#64,#65),#515);
#12=SHAPE_DEFINITION_REPRESENTATION(#13,#22);
#13=PRODUCT_DEFINITION_SHAPE('','',#14);
#14=PRODUCT_DEFINITION(' ','',#16,#15);
#15=PRODUCT_DEFINITION_CONTEXT('part definition',#21,'design');
#16=PRODUCT_DEFINITION_FORMATION_WITH_SPECIFIED_SOURCE(' ',' ',#18,
 .NOT_KNOWN.);
#17=PRODUCT_RELATED_PRODUCT_CATEGORY('part','',(#18));
#18=PRODUCT('model1','model1',' ',(#19));
#19=PRODUCT_CONTEXT(' ',#21,'mechanical');
#20=APPLICATION_PROTOCOL_DEFINITION('international standard',
'automotive_design',2010,#21);
#21=APPLICATION_CONTEXT(
'core data for automotive mechanical design processes');
#22=SHAPE_REPRESENTATION('model1-None',(#321),#515);
#23=OVER_RIDING_STYLED_ITEM('',(#34),#93,#31);
#24=OVER_RIDING_STYLED_ITEM('',(#35),#94,#31);
#25=OVER_RIDING_STYLED_ITEM('',(#36),#95,#31);
#26=DRAUGHTING_PRE_DEFINED_COLOUR('yellow');
#27=FACE_BOUND('',#136,.T.);
#28=FACE_BOUND('',#137,.T.);
#29=PRESENTATION_LAYER_ASSIGNMENT('1','Layer 1',(#64,#65));
#30=STYLED_ITEM('',(#32),#64);
#31=STYLED_ITEM('',(#33),#65);
#32=PRESENTATION_STYLE_ASSIGNMENT((#37));
#33=PRESENTATION_STYLE_ASSIGNMENT((#38));
#34=PRESENTATION_STYLE_ASSIGNMENT((#39));
#35=PRESENTATION_STYLE_ASSIGNMENT((#40));
#36=PRESENTATION_STYLE_ASSIGNMENT((#41));
#37=SURFACE_STYLE_USAGE(.BOTH.,#42);
#38=SURFACE_STYLE_USAGE(.BOTH.,#43);
#39=SURFACE_STYLE_USAGE(.BOTH.,#44);
#40=SURFACE_STYLE_USAGE(.BOTH.,#45);
#41=SURFACE_STYLE_USAGE(.BOTH.,#46);
#42=SURFACE_SIDE_STYLE('',(#47));
#43=SURFACE_SIDE_STYLE('',(#48));
#44=SURFACE_SIDE_STYLE('',(#49));
#45=SURFACE_SIDE_STYLE('',(#50));
#46=SURFACE_SIDE_STYLE('',(#51));
#47=SURFACE_STYLE_FILL_AREA(#52);
#48=SURFACE_STYLE_FILL_AREA(#53);
#49=SURFACE_STYLE_FILL_AREA(#54);
#50=SURFACE_STYLE_FILL_AREA(#55);
#51=SURFACE_STYLE_FILL_AREA(#56);
#52=FILL_AREA_STYLE('',(#57));
#53=FILL_AREA_STYLE('',(#58));
#54=FILL_AREA_STYLE('',(#59));
#55=FILL_AREA_STYLE('',(#60));
#56=FILL_AREA_STYLE('',(#61));
#57=FILL_AREA_STYLE_COLOUR('',#62);
#58=FILL_AREA_STYLE_COLOUR('',#63);
#59=FILL_AREA_STYLE_COLOUR('',#26);
#60=FILL_AREA_STYLE_COLOUR('',#26);
#61=FILL_AREA_STYLE_COLOUR('',#26);
#62=COLOUR_RGB('light gray',0.8,0.8,0.8);
#63=COLOUR_RGB('Medium Steel',0.611764705882353,0.658823529411765,0.670588235294118);
#64=MANIFOLD_SOLID_BREP('',#66);
#65=MANIFOLD_SOLID_BREP('',#67);
#66=CLOSED_SHELL('',(#80,#81,#82,#83,#84,#85,#86,#87,#88,#89,#90,#91,#92));
#67=CLOSED_SHELL('',(#93,#94,#95));
#68=CONICAL_SURFACE('',#339,2.70777274505108,7.);
#69=CONICAL_SURFACE('',#343,3.,7.00000000000002);
#70=CYLINDRICAL_SURFACE('',#325,2.65777274505109);
#71=CYLINDRICAL_SURFACE('',#337,8.2);
#72=CIRCLE('',#323,2.65777274505109);
#73=CIRCLE('',#324,2.65777274505109);
#74=CIRCLE('',#329,8.2);
#75=CIRCLE('',#334,2.96316463172913);
#76=CIRCLE('',#335,8.2);
#77=CIRCLE('',#338,2.70777274505108);
#78=CIRCLE('',#341,2.70777274505108);
#79=CIRCLE('',#342,3.);
#80=ADVANCED_FACE('',(#108),#96,.F.);
#81=ADVANCED_FACE('',(#109),#70,.T.);
#82=ADVANCED_FACE('',(#110),#97,.F.);
#83=ADVANCED_FACE('',(#111),#98,.T.);
#84=ADVANCED_FACE('',(#112),#99,.T.);
#85=ADVANCED_FACE('',(#113),#100,.F.);
#86=ADVANCED_FACE('',(#114),#101,.T.);
#87=ADVANCED_FACE('',(#115),#102,.T.);
#88=ADVANCED_FACE('',(#116),#103,.T.);
#89=ADVANCED_FACE('',(#117),#104,.T.);
#90=ADVANCED_FACE('',(#118),#71,.F.);
#91=ADVANCED_FACE('',(#119),#68,.F.);
#92=ADVANCED_FACE('',(#120),#105,.T.);
#93=ADVANCED_FACE('',(#27,#28),#69,.T.);
#94=ADVANCED_FACE('',(#121),#106,.F.);
#95=ADVANCED_FACE('',(#122),#107,.T.);
#96=PLANE('',#322);
#97=PLANE('',#326);
#98=PLANE('',#327);
#99=PLANE('',#328);
#100=PLANE('',#330);
#101=PLANE('',#331);
#102=PLANE('',#332);
#103=PLANE('',#333);
#104=PLANE('',#336);
#105=PLANE('',#340);
#106=PLANE('',#344);
#107=PLANE('',#345);
#108=FACE_OUTER_BOUND('',#123,.T.);
#109=FACE_OUTER_BOUND('',#124,.T.);
#110=FACE_OUTER_BOUND('',#125,.T.);
#111=FACE_OUTER_BOUND('',#126,.T.);
#112=FACE_OUTER_BOUND('',#127,.T.);
#113=FACE_OUTER_BOUND('',#128,.T.);
#114=FACE_OUTER_BOUND('',#129,.T.);
#115=FACE_OUTER_BOUND('',#130,.T.);
#116=FACE_OUTER_BOUND('',#131,.T.);
#117=FACE_OUTER_BOUND('',#132,.T.);
#118=FACE_OUTER_BOUND('',#133,.T.);
#119=FACE_OUTER_BOUND('',#134,.T.);
#120=FACE_OUTER_BOUND('',#135,.T.);
#121=FACE_OUTER_BOUND('',#138,.T.);
#122=FACE_OUTER_BOUND('',#139,.T.);
#123=EDGE_LOOP('',(#190,#191,#192,#193,#194,#195));
#124=EDGE_LOOP('',(#196,#197,#198,#199));
#125=EDGE_LOOP('',(#200,#201,#202,#203,#204,#205));
#126=EDGE_LOOP('',(#206,#207,#208,#209,#210,#211));
#127=EDGE_LOOP('',(#212,#213,#214,#215,#216,#217));
#128=EDGE_LOOP('',(#218,#219,#220,#221,#222,#223,#224));
#129=EDGE_LOOP('',(#225,#226,#227,#228));
#130=EDGE_LOOP('',(#229,#230,#231,#232));
#131=EDGE_LOOP('',(#233,#234,#235,#236));
#132=EDGE_LOOP('',(#237,#238,#239,#240,#241,#242,#243));
#133=EDGE_LOOP('',(#244,#245,#246,#247));
#134=EDGE_LOOP('',(#248,#249,#250,#251));
#135=EDGE_LOOP('',(#252,#253,#254,#255));
#136=EDGE_LOOP('',(#256));
#137=EDGE_LOOP('',(#257));
#138=EDGE_LOOP('',(#258));
#139=EDGE_LOOP('',(#259));
#140=LINE('',#431,#165);
#141=LINE('',#433,#166);
#142=LINE('',#435,#167);
#143=LINE('',#437,#168);
#144=LINE('',#439,#169);
#145=LINE('',#443,#170);
#146=LINE('',#462,#171);
#147=LINE('',#464,#172);
#148=LINE('',#466,#173);
#149=LINE('',#467,#174);
#150=LINE('',#469,#175);
#151=LINE('',#472,#176);
#152=LINE('',#474,#177);
#153=LINE('',#476,#178);
#154=LINE('',#478,#179);
#155=LINE('',#480,#180);
#156=LINE('',#482,#181);
#157=LINE('',#484,#182);
#158=LINE('',#486,#183);
#159=LINE('',#488,#184);
#160=LINE('',#490,#185);
#161=LINE('',#492,#186);
#162=LINE('',#495,#187);
#163=LINE('',#496,#188);
#164=LINE('',#499,#189);
#165=VECTOR('',#348,1.);
#166=VECTOR('',#349,1.);
#167=VECTOR('',#350,1.);
#168=VECTOR('',#351,1.);
#169=VECTOR('',#352,1.);
#170=VECTOR('',#357,1.);
#171=VECTOR('',#362,1.);
#172=VECTOR('',#363,1.);
#173=VECTOR('',#364,1.);
#174=VECTOR('',#365,1.);
#175=VECTOR('',#368,1.);
#176=VECTOR('',#369,1.);
#177=VECTOR('',#370,1.);
#178=VECTOR('',#371,1.);
#179=VECTOR('',#372,1.);
#180=VECTOR('',#373,1.);
#181=VECTOR('',#376,1.);
#182=VECTOR('',#377,1.);
#183=VECTOR('',#378,1.);
#184=VECTOR('',#379,1.);
#185=VECTOR('',#380,1.);
#186=VECTOR('',#383,1.);
#187=VECTOR('',#388,1.);
#188=VECTOR('',#389,1.);
#189=VECTOR('',#394,1.);
#190=ORIENTED_EDGE('',*,*,#284,.F.);
#191=ORIENTED_EDGE('',*,*,#285,.F.);
#192=ORIENTED_EDGE('',*,*,#286,.T.);
#193=ORIENTED_EDGE('',*,*,#287,.F.);
#194=ORIENTED_EDGE('',*,*,#288,.F.);
#195=ORIENTED_EDGE('',*,*,#289,.F.);
#196=ORIENTED_EDGE('',*,*,#290,.F.);
#197=ORIENTED_EDGE('',*,*,#291,.F.);
#198=ORIENTED_EDGE('',*,*,#292,.F.);
#199=ORIENTED_EDGE('',*,*,#286,.F.);
#200=ORIENTED_EDGE('',*,*,#293,.F.);
#201=ORIENTED_EDGE('',*,*,#294,.F.);
#202=ORIENTED_EDGE('',*,*,#295,.F.);
#203=ORIENTED_EDGE('',*,*,#296,.F.);
#204=ORIENTED_EDGE('',*,*,#291,.T.);
#205=ORIENTED_EDGE('',*,*,#297,.F.);
#206=ORIENTED_EDGE('',*,*,#298,.T.);
#207=ORIENTED_EDGE('',*,*,#299,.T.);
#208=ORIENTED_EDGE('',*,*,#300,.T.);
#209=ORIENTED_EDGE('',*,*,#301,.T.);
#210=ORIENTED_EDGE('',*,*,#302,.F.);
#211=ORIENTED_EDGE('',*,*,#303,.F.);
#212=ORIENTED_EDGE('',*,*,#304,.T.);
#213=ORIENTED_EDGE('',*,*,#295,.T.);
#214=ORIENTED_EDGE('',*,*,#305,.T.);
#215=ORIENTED_EDGE('',*,*,#306,.F.);
#216=ORIENTED_EDGE('',*,*,#307,.F.);
#217=ORIENTED_EDGE('',*,*,#308,.F.);
#218=ORIENTED_EDGE('',*,*,#292,.T.);
#219=ORIENTED_EDGE('',*,*,#296,.T.);
#220=ORIENTED_EDGE('',*,*,#304,.F.);
#221=ORIENTED_EDGE('',*,*,#309,.F.);
#222=ORIENTED_EDGE('',*,*,#300,.F.);
#223=ORIENTED_EDGE('',*,*,#310,.T.);
#224=ORIENTED_EDGE('',*,*,#287,.T.);
#225=ORIENTED_EDGE('',*,*,#307,.T.);
#226=ORIENTED_EDGE('',*,*,#311,.F.);
#227=ORIENTED_EDGE('',*,*,#302,.T.);
#228=ORIENTED_EDGE('',*,*,#312,.T.);
#229=ORIENTED_EDGE('',*,*,#312,.F.);
#230=ORIENTED_EDGE('',*,*,#301,.F.);
#231=ORIENTED_EDGE('',*,*,#309,.T.);
#232=ORIENTED_EDGE('',*,*,#308,.T.);
#233=ORIENTED_EDGE('',*,*,#311,.T.);
#234=ORIENTED_EDGE('',*,*,#306,.T.);
#235=ORIENTED_EDGE('',*,*,#313,.F.);
#236=ORIENTED_EDGE('',*,*,#303,.T.);
#237=ORIENTED_EDGE('',*,*,#294,.T.);
#238=ORIENTED_EDGE('',*,*,#314,.T.);
#239=ORIENTED_EDGE('',*,*,#289,.T.);
#240=ORIENTED_EDGE('',*,*,#315,.T.);
#241=ORIENTED_EDGE('',*,*,#298,.F.);
#242=ORIENTED_EDGE('',*,*,#313,.T.);
#243=ORIENTED_EDGE('',*,*,#305,.F.);
#244=ORIENTED_EDGE('',*,*,#288,.T.);
#245=ORIENTED_EDGE('',*,*,#310,.F.);
#246=ORIENTED_EDGE('',*,*,#299,.F.);
#247=ORIENTED_EDGE('',*,*,#315,.F.);
#248=ORIENTED_EDGE('',*,*,#284,.T.);
#249=ORIENTED_EDGE('',*,*,#314,.F.);
#250=ORIENTED_EDGE('',*,*,#293,.T.);
#251=ORIENTED_EDGE('',*,*,#316,.T.);
#252=ORIENTED_EDGE('',*,*,#285,.T.);
#253=ORIENTED_EDGE('',*,*,#316,.F.);
#254=ORIENTED_EDGE('',*,*,#297,.T.);
#255=ORIENTED_EDGE('',*,*,#290,.T.);
#256=ORIENTED_EDGE('',*,*,#317,.T.);
#257=ORIENTED_EDGE('',*,*,#318,.F.);
#258=ORIENTED_EDGE('',*,*,#317,.F.);
#259=ORIENTED_EDGE('',*,*,#318,.T.);
#260=VERTEX_POINT('',#429);
#261=VERTEX_POINT('',#430);
#262=VERTEX_POINT('',#432);
#263=VERTEX_POINT('',#434);
#264=VERTEX_POINT('',#436);
#265=VERTEX_POINT('',#438);
#266=VERTEX_POINT('',#442);
#267=VERTEX_POINT('',#444);
#268=VERTEX_POINT('',#460);
#269=VERTEX_POINT('',#461);
#270=VERTEX_POINT('',#463);
#271=VERTEX_POINT('',#465);
#272=VERTEX_POINT('',#470);
#273=VERTEX_POINT('',#471);
#274=VERTEX_POINT('',#473);
#275=VERTEX_POINT('',#475);
#276=VERTEX_POINT('',#477);
#277=VERTEX_POINT('',#479);
#278=VERTEX_POINT('',#483);
#279=VERTEX_POINT('',#485);
#280=VERTEX_POINT('',#487);
#281=VERTEX_POINT('',#489);
#282=VERTEX_POINT('',#509);
#283=VERTEX_POINT('',#511);
#284=EDGE_CURVE('',#260,#261,#319,.T.);
#285=EDGE_CURVE('',#262,#260,#140,.T.);
#286=EDGE_CURVE('',#262,#263,#141,.T.);
#287=EDGE_CURVE('',#264,#263,#142,.T.);
#288=EDGE_CURVE('',#265,#264,#143,.T.);
#289=EDGE_CURVE('',#261,#265,#144,.T.);
#290=EDGE_CURVE('',#266,#262,#72,.T.);
#291=EDGE_CURVE('',#267,#266,#145,.T.);
#292=EDGE_CURVE('',#263,#267,#73,.T.);
#293=EDGE_CURVE('',#268,#269,#320,.T.);
#294=EDGE_CURVE('',#270,#268,#146,.T.);
#295=EDGE_CURVE('',#271,#270,#147,.T.);
#296=EDGE_CURVE('',#267,#271,#148,.T.);
#297=EDGE_CURVE('',#269,#266,#149,.T.);
#298=EDGE_CURVE('',#272,#273,#150,.T.);
#299=EDGE_CURVE('',#273,#274,#151,.T.);
#300=EDGE_CURVE('',#274,#275,#152,.T.);
#301=EDGE_CURVE('',#275,#276,#153,.T.);
#302=EDGE_CURVE('',#277,#276,#154,.T.);
#303=EDGE_CURVE('',#272,#277,#155,.T.);
#304=EDGE_CURVE('',#278,#271,#156,.T.);
#305=EDGE_CURVE('',#270,#279,#157,.T.);
#306=EDGE_CURVE('',#280,#279,#158,.T.);
#307=EDGE_CURVE('',#281,#280,#159,.T.);
#308=EDGE_CURVE('',#278,#281,#160,.T.);
#309=EDGE_CURVE('',#275,#278,#161,.T.);
#310=EDGE_CURVE('',#274,#264,#74,.T.);
#311=EDGE_CURVE('',#277,#280,#162,.T.);
#312=EDGE_CURVE('',#276,#281,#163,.T.);
#313=EDGE_CURVE('',#272,#279,#164,.T.);
#314=EDGE_CURVE('',#268,#261,#75,.T.);
#315=EDGE_CURVE('',#265,#273,#76,.T.);
#316=EDGE_CURVE('',#269,#260,#77,.T.);
#317=EDGE_CURVE('',#282,#282,#78,.T.);
#318=EDGE_CURVE('',#283,#283,#79,.T.);
#319=B_SPLINE_CURVE_WITH_KNOTS('',3,(#422,#423,#424,#425,#426,#427,#428),
 .UNSPECIFIED.,.F.,.F.,(4,3,4),(0.,0.46269746831364,1.),.UNSPECIFIED.);
#320=B_SPLINE_CURVE_WITH_KNOTS('',3,(#447,#448,#449,#450,#451,#452,#453,
#454,#455,#456,#457,#458,#459),.UNSPECIFIED.,.F.,.F.,(4,3,3,3,4),(0.,0.422365161947863,
0.709278823035376,0.906003655619891,1.),.UNSPECIFIED.);
#321=AXIS2_PLACEMENT_3D('',#421,#346,#347);
#322=AXIS2_PLACEMENT_3D('',#440,#353,#354);
#323=AXIS2_PLACEMENT_3D('',#441,#355,#356);
#324=AXIS2_PLACEMENT_3D('',#445,#358,#359);
#325=AXIS2_PLACEMENT_3D('',#446,#360,#361);
#326=AXIS2_PLACEMENT_3D('',#468,#366,#367);
#327=AXIS2_PLACEMENT_3D('',#481,#374,#375);
#328=AXIS2_PLACEMENT_3D('',#491,#381,#382);
#329=AXIS2_PLACEMENT_3D('',#493,#384,#385);
#330=AXIS2_PLACEMENT_3D('',#494,#386,#387);
#331=AXIS2_PLACEMENT_3D('',#497,#390,#391);
#332=AXIS2_PLACEMENT_3D('',#498,#392,#393);
#333=AXIS2_PLACEMENT_3D('',#500,#395,#396);
#334=AXIS2_PLACEMENT_3D('',#501,#397,#398);
#335=AXIS2_PLACEMENT_3D('',#502,#399,#400);
#336=AXIS2_PLACEMENT_3D('',#503,#401,#402);
#337=AXIS2_PLACEMENT_3D('',#504,#403,#404);
#338=AXIS2_PLACEMENT_3D('',#505,#405,#406);
#339=AXIS2_PLACEMENT_3D('',#506,#407,#408);
#340=AXIS2_PLACEMENT_3D('',#507,#409,#410);
#341=AXIS2_PLACEMENT_3D('',#508,#411,#412);
#342=AXIS2_PLACEMENT_3D('',#510,#413,#414);
#343=AXIS2_PLACEMENT_3D('',#512,#415,#416);
#344=AXIS2_PLACEMENT_3D('',#513,#417,#418);
#345=AXIS2_PLACEMENT_3D('',#514,#419,#420);
#346=DIRECTION('',(0.,0.,1.));
#347=DIRECTION('',(1.,0.,0.));
#348=DIRECTION('',(0.707106781186545,0.70710678118655,0.));
#349=DIRECTION('',(0.,0.,-1.));
#350=DIRECTION('',(-0.707106781186545,-0.70710678118655,0.));
#351=DIRECTION('',(0.,0.,-1.));
#352=DIRECTION('',(0.707106781186545,0.70710678118655,0.));
#353=DIRECTION('',(-0.70710678118655,0.707106781186545,0.));
#354=DIRECTION('',(-0.707106781186545,-0.70710678118655,0.));
#355=DIRECTION('',(0.,0.,1.));
#356=DIRECTION('',(1.,0.,0.));
#357=DIRECTION('',(0.,0.,1.));
#358=DIRECTION('',(0.,0.,-1.));
#359=DIRECTION('',(1.,0.,0.));
#360=DIRECTION('',(0.,0.,1.));
#361=DIRECTION('',(1.,0.,0.));
#362=DIRECTION('',(-0.5,-0.866025403784439,0.));
#363=DIRECTION('',(0.,0.,1.));
#364=DIRECTION('',(0.5,0.866025403784439,0.));
#365=DIRECTION('',(-0.5,-0.866025403784439,0.));
#366=DIRECTION('',(0.866025403784439,-0.5,0.));
#367=DIRECTION('',(0.5,0.866025403784439,0.));
#368=DIRECTION('',(-1.,0.,0.));
#369=DIRECTION('',(0.,0.,-1.));
#370=DIRECTION('',(1.,0.,0.));
#371=DIRECTION('',(0.,0.,1.));
#372=DIRECTION('',(1.,0.,0.));
#373=DIRECTION('',(0.707106781186547,0.,0.707106781186548));
#374=DIRECTION('',(0.,-1.,0.));
#375=DIRECTION('',(0.,0.,-1.));
#376=DIRECTION('',(-1.,0.,0.));
#377=DIRECTION('',(1.,0.,0.));
#378=DIRECTION('',(-0.707106781186547,0.,-0.707106781186548));
#379=DIRECTION('',(-1.,0.,0.));
#380=DIRECTION('',(0.,0.,1.));
#381=DIRECTION('',(0.,1.,0.));
#382=DIRECTION('',(0.,0.,1.));
#383=DIRECTION('',(0.,1.,0.));
#384=DIRECTION('',(0.,0.,1.));
#385=DIRECTION('',(1.,0.,0.));
#386=DIRECTION('',(0.,0.,1.));
#387=DIRECTION('',(1.,0.,0.));
#388=DIRECTION('',(0.,1.,0.));
#389=DIRECTION('',(0.,1.,0.));
#390=DIRECTION('',(0.,0.,1.));
#391=DIRECTION('',(1.,0.,0.));
#392=DIRECTION('',(1.,0.,0.));
#393=DIRECTION('',(0.,0.,-1.));
#394=DIRECTION('',(0.,1.,0.));
#395=DIRECTION('',(-0.707106781186548,0.,0.707106781186547));
#396=DIRECTION('',(0.707106781186547,0.,0.707106781186548));
#397=DIRECTION('',(0.,0.,-1.));
#398=DIRECTION('',(1.,0.,0.));
#399=DIRECTION('',(0.,0.,-1.));
#400=DIRECTION('',(1.,0.,0.));
#401=DIRECTION('',(0.,0.,1.));
#402=DIRECTION('',(1.,0.,0.));
#403=DIRECTION('',(0.,0.,1.));
#404=DIRECTION('',(1.,0.,0.));
#405=DIRECTION('',(0.,0.,-1.));
#406=DIRECTION('',(1.,0.,0.));
#407=DIRECTION('',(0.,0.,1.));
#408=DIRECTION('',(1.,0.,-3.87053582600597E-16));
#409=DIRECTION('',(0.,0.,1.));
#410=DIRECTION('',(1.,0.,0.));
#411=DIRECTION('',(0.,0.,1.));
#412=DIRECTION('',(1.,0.,0.));
#413=DIRECTION('',(0.,0.,1.));
#414=DIRECTION('',(1.,0.,0.));
#415=DIRECTION('',(0.,0.,1.));
#416=DIRECTION('',(1.,0.,0.));
#417=DIRECTION('',(0.,0.,1.));
#418=DIRECTION('',(1.,0.,0.));
#419=DIRECTION('',(0.,0.,1.));
#420=DIRECTION('',(1.,0.,0.));
#421=CARTESIAN_POINT('',(0.,0.,0.));
#422=CARTESIAN_POINT('',(5.24557855033534,-18.5130797114215,-2.38));
#423=CARTESIAN_POINT('',(5.37672099370769,-18.3819372680491,-2.09106893556461));
#424=CARTESIAN_POINT('',(5.4681208723984,-18.2905373893584,-1.76768936310053));
#425=CARTESIAN_POINT('',(5.55129891683058,-18.2073593449262,-1.44513600820868));
#426=CARTESIAN_POINT('',(5.64823389487192,-18.1104243668849,-1.06923510085935));
#427=CARTESIAN_POINT('',(5.73006869140481,-18.028589570352,-0.685529020938375));
#428=CARTESIAN_POINT('',(5.80577089116181,-17.952887370595,-0.3));
#429=CARTESIAN_POINT('',(5.24557855033534,-18.5130797114215,-2.38));
#430=CARTESIAN_POINT('',(5.80577089116181,-17.952887370595,-0.3));
#431=CARTESIAN_POINT('',(6.85693386748651,-16.9017243942703,-2.38));
#432=CARTESIAN_POINT('',(4.87932913087841,-18.8793291308784,-2.38));
#433=CARTESIAN_POINT('',(4.87932913087842,-18.8793291308784,-35.));
#434=CARTESIAN_POINT('',(4.87932913087841,-18.8793291308784,-16.));
#435=CARTESIAN_POINT('',(6.85693386748651,-16.9017243942703,-16.));
#436=CARTESIAN_POINT('',(6.8569338674865,-16.9017243942703,-16.));
#437=CARTESIAN_POINT('',(6.85693386748651,-16.9017243942703,-35.));
#438=CARTESIAN_POINT('',(6.8569338674865,-16.9017243942703,-0.3));
#439=CARTESIAN_POINT('',(6.85693386748651,-16.9017243942703,-0.3));
#440=CARTESIAN_POINT('',(6.85693386748651,-16.9017243942703,-35.));
#441=CARTESIAN_POINT('',(3.,-17.,-2.38));
#442=CARTESIAN_POINT('',(0.698301285299856,-15.6711136274745,-2.38));
#443=CARTESIAN_POINT('',(0.698301285299855,-15.6711136274745,-35.));
#444=CARTESIAN_POINT('',(0.698301285299856,-15.6711136274745,-16.));
#445=CARTESIAN_POINT('',(3.,-17.,-16.));
#446=CARTESIAN_POINT('',(3.,-17.,-35.));
#447=CARTESIAN_POINT('',(1.35339453637065,-14.5364588329244,-0.3));
#448=CARTESIAN_POINT('',(1.31134447308972,-14.6092916789884,-0.602851847612491));
#449=CARTESIAN_POINT('',(1.26644627183121,-14.6870576447366,-0.904322989084328));
#450=CARTESIAN_POINT('',(1.21609845804679,-14.7742626162612,-1.20206862461664));
#451=CARTESIAN_POINT('',(1.18189868654339,-14.8334983581124,-1.40431837363139));
#452=CARTESIAN_POINT('',(1.14519588481048,-14.8970694754939,-1.60511130304435));
#453=CARTESIAN_POINT('',(1.10379954009524,-14.9687700477883,-1.80190771824782));
#454=CARTESIAN_POINT('',(1.07541853310188,-15.0179273938708,-1.93682978623663));
#455=CARTESIAN_POINT('',(1.04481744375043,-15.0709300353945,-2.07017194359237));
#456=CARTESIAN_POINT('',(1.0101720347528,-15.1309376440273,-2.19910864590694));
#457=CARTESIAN_POINT('',(0.9936391356879,-15.1595734652042,-2.26063764922379));
#458=CARTESIAN_POINT('',(0.976144955846189,-15.1898742735268,-2.32121711254032));
#459=CARTESIAN_POINT('',(0.957278733403497,-15.2225515293444,-2.38));
#460=CARTESIAN_POINT('',(1.35339453637065,-14.5364588329244,-0.3));
#461=CARTESIAN_POINT('',(0.957278733403497,-15.2225515293444,-2.38));
#462=CARTESIAN_POINT('',(0.698301285299857,-15.6711136274745,-0.3));
#463=CARTESIAN_POINT('',(9.74602295662344,0.,-0.3));
#464=CARTESIAN_POINT('',(9.74602295662344,0.,-35.));
#465=CARTESIAN_POINT('',(9.74602295662344,0.,-16.));
#466=CARTESIAN_POINT('',(0.698301285299857,-15.6711136274745,-16.));
#467=CARTESIAN_POINT('',(0.698301285299857,-15.6711136274745,-2.38));
#468=CARTESIAN_POINT('',(0.698301285299857,-15.6711136274745,-35.));
#469=CARTESIAN_POINT('',(10.,-16.,-0.3));
#470=CARTESIAN_POINT('',(18.,-16.,-0.3));
#471=CARTESIAN_POINT('',(17.3827881346453,-16.,-0.3));
#472=CARTESIAN_POINT('',(17.3827881346453,-16.,-35.));
#473=CARTESIAN_POINT('',(17.3827881346453,-16.,-16.));
#474=CARTESIAN_POINT('',(10.,-16.,-16.));
#475=CARTESIAN_POINT('',(100.,-16.,-16.));
#476=CARTESIAN_POINT('',(100.,-16.,-16.));
#477=CARTESIAN_POINT('',(100.,-16.,0.));
#478=CARTESIAN_POINT('',(10.,-16.,0.));
#479=CARTESIAN_POINT('',(18.3,-16.,0.));
#480=CARTESIAN_POINT('',(6.15,-16.,-12.15));
#481=CARTESIAN_POINT('',(10.,-16.,-16.));
#482=CARTESIAN_POINT('',(100.,0.,-16.));
#483=CARTESIAN_POINT('',(100.,0.,-16.));
#484=CARTESIAN_POINT('',(100.,0.,-0.3));
#485=CARTESIAN_POINT('',(18.,0.,-0.3));
#486=CARTESIAN_POINT('',(51.15,0.,32.85));
#487=CARTESIAN_POINT('',(18.3,0.,0.));
#488=CARTESIAN_POINT('',(100.,0.,0.));
#489=CARTESIAN_POINT('',(100.,0.,0.));
#490=CARTESIAN_POINT('',(100.,0.,-16.));
#491=CARTESIAN_POINT('',(100.,0.,-16.));
#492=CARTESIAN_POINT('',(100.,-16.,-16.));
#493=CARTESIAN_POINT('',(12.6552094732162,-22.7,-16.));
#494=CARTESIAN_POINT('',(0.,0.,-16.));
#495=CARTESIAN_POINT('',(18.3,0.,0.));
#496=CARTESIAN_POINT('',(100.,-16.,0.));
#497=CARTESIAN_POINT('',(0.,0.,0.));
#498=CARTESIAN_POINT('',(100.,-16.,-16.));
#499=CARTESIAN_POINT('',(18.,-21.,-0.3));
#500=CARTESIAN_POINT('',(18.,-21.,-0.3));
#501=CARTESIAN_POINT('',(3.,-17.,-0.3));
#502=CARTESIAN_POINT('',(12.6552094732162,-22.7,-0.3));
#503=CARTESIAN_POINT('',(0.,0.,-0.3));
#504=CARTESIAN_POINT('',(12.6552094732162,-22.7,-35.));
#505=CARTESIAN_POINT('',(3.,-17.,-2.38));
#506=CARTESIAN_POINT('',(3.,-17.,-2.38));
#507=CARTESIAN_POINT('',(3.,-17.,-2.38));
#508=CARTESIAN_POINT('',(3.00000000000001,-17.,-2.38));
#509=CARTESIAN_POINT('',(5.70777274505109,-17.,-2.38));
#510=CARTESIAN_POINT('',(3.00000000000001,-17.,0.));
#511=CARTESIAN_POINT('',(6.00000000000001,-17.,0.));
#512=CARTESIAN_POINT('',(3.00000000000001,-17.,0.));
#513=CARTESIAN_POINT('',(3.00000000000001,-17.,-2.38));
#514=CARTESIAN_POINT('',(3.00000000000001,-17.,0.));
#515=(
GEOMETRIC_REPRESENTATION_CONTEXT(3)
GLOBAL_UNCERTAINTY_ASSIGNED_CONTEXT((#516))
GLOBAL_UNIT_ASSIGNED_CONTEXT((#522,#518,#517))
REPRESENTATION_CONTEXT('SRGCR-1616-H06','TOP_LEVEL_ASSEMBLY_PART')
);
#516=UNCERTAINTY_MEASURE_WITH_UNIT(LENGTH_MEASURE(0.0508),#522,
'DISTANCE_ACCURACY_VALUE','Maximum Tolerance applied to model');
#517=(
NAMED_UNIT(*)
SI_UNIT($,.STERADIAN.)
SOLID_ANGLE_UNIT()
);
#518=(
CONVERSION_BASED_UNIT('DEGREE',#520)
NAMED_UNIT(#519)
PLANE_ANGLE_UNIT()
);
#519=DIMENSIONAL_EXPONENTS(0.,0.,0.,0.,0.,0.,0.);
#520=PLANE_ANGLE_MEASURE_WITH_UNIT(PLANE_ANGLE_MEASURE(0.0174532925),#521);
#521=(
NAMED_UNIT(*)
PLANE_ANGLE_UNIT()
SI_UNIT($,.RADIAN.)
);
#522=(
LENGTH_UNIT()
NAMED_UNIT(*)
SI_UNIT(.MILLI.,.METRE.)
);
ENDSEC;
END-ISO-10303-21;
