ISO-10303-21;
HEADER;
/* Generated by software containing ST-Developer
 * from STEP Tools, Inc. (www.steptools.com) 
 */
/* OPTION: using custom schema-name function */

FILE_DESCRIPTION(
/* description */ (''),
/* implementation_level */ '2;1');

FILE_NAME(
/* name */ 'SRGCR-2020-K06.stp',
/* time_stamp */ '2023-10-07T20:56:19+03:00',
/* author */ (''),
/* organization */ (''),
/* preprocessor_version */ 'ST-DEVELOPER v19.4',
/* originating_system */ 'SIEMENS PLM Software NX2306.3001',
/* authorisation */ '');

FILE_SCHEMA (('AUTOMOTIVE_DESIGN { 1 0 10303 214 3 1 1 1 }'));
ENDSEC;

DATA;
#10=SHAPE_REPRESENTATION_RELATIONSHIP('None',
'relationship between model1-None and model1-None',#22,#11);
#11=ADVANCED_BREP_SHAPE_REPRESENTATION('model1-None',(#64,#65),#574);
#12=SHAPE_DEFINITION_REPRESENTATION(#13,#22);
#13=PRODUCT_DEFINITION_SHAPE('','',#14);
#14=PRODUCT_DEFINITION(' ','',#16,#15);
#15=PRODUCT_DEFINITION_CONTEXT('part definition',#21,'design');
#16=PRODUCT_DEFINITION_FORMATION_WITH_SPECIFIED_SOURCE(' ',' ',#18,
 .NOT_KNOWN.);
#17=PRODUCT_RELATED_PRODUCT_CATEGORY('part','',(#18));
#18=PRODUCT('model1','model1',' ',(#19));
#19=PRODUCT_CONTEXT(' ',#21,'mechanical');
#20=APPLICATION_PROTOCOL_DEFINITION('international standard',
'automotive_design',2010,#21);
#21=APPLICATION_CONTEXT(
'core data for automotive mechanical design processes');
#22=SHAPE_REPRESENTATION('model1-None',(#355),#574);
#23=OVER_RIDING_STYLED_ITEM('',(#34),#98,#31);
#24=OVER_RIDING_STYLED_ITEM('',(#35),#99,#31);
#25=OVER_RIDING_STYLED_ITEM('',(#36),#100,#31);
#26=DRAUGHTING_PRE_DEFINED_COLOUR('yellow');
#27=FACE_BOUND('',#146,.T.);
#28=FACE_BOUND('',#147,.T.);
#29=PRESENTATION_LAYER_ASSIGNMENT('1','Layer 1',(#64,#65));
#30=STYLED_ITEM('',(#32),#64);
#31=STYLED_ITEM('',(#33),#65);
#32=PRESENTATION_STYLE_ASSIGNMENT((#37));
#33=PRESENTATION_STYLE_ASSIGNMENT((#38));
#34=PRESENTATION_STYLE_ASSIGNMENT((#39));
#35=PRESENTATION_STYLE_ASSIGNMENT((#40));
#36=PRESENTATION_STYLE_ASSIGNMENT((#41));
#37=SURFACE_STYLE_USAGE(.BOTH.,#42);
#38=SURFACE_STYLE_USAGE(.BOTH.,#43);
#39=SURFACE_STYLE_USAGE(.BOTH.,#44);
#40=SURFACE_STYLE_USAGE(.BOTH.,#45);
#41=SURFACE_STYLE_USAGE(.BOTH.,#46);
#42=SURFACE_SIDE_STYLE('',(#47));
#43=SURFACE_SIDE_STYLE('',(#48));
#44=SURFACE_SIDE_STYLE('',(#49));
#45=SURFACE_SIDE_STYLE('',(#50));
#46=SURFACE_SIDE_STYLE('',(#51));
#47=SURFACE_STYLE_FILL_AREA(#52);
#48=SURFACE_STYLE_FILL_AREA(#53);
#49=SURFACE_STYLE_FILL_AREA(#54);
#50=SURFACE_STYLE_FILL_AREA(#55);
#51=SURFACE_STYLE_FILL_AREA(#56);
#52=FILL_AREA_STYLE('',(#57));
#53=FILL_AREA_STYLE('',(#58));
#54=FILL_AREA_STYLE('',(#59));
#55=FILL_AREA_STYLE('',(#60));
#56=FILL_AREA_STYLE('',(#61));
#57=FILL_AREA_STYLE_COLOUR('',#62);
#58=FILL_AREA_STYLE_COLOUR('',#63);
#59=FILL_AREA_STYLE_COLOUR('',#26);
#60=FILL_AREA_STYLE_COLOUR('',#26);
#61=FILL_AREA_STYLE_COLOUR('',#26);
#62=COLOUR_RGB('light gray',0.8,0.8,0.8);
#63=COLOUR_RGB('Medium Steel',0.611764705882353,0.658823529411765,0.670588235294118);
#64=MANIFOLD_SOLID_BREP('',#66);
#65=MANIFOLD_SOLID_BREP('',#67);
#66=CLOSED_SHELL('',(#83,#84,#85,#86,#87,#88,#89,#90,#91,#92,#93,#94,#95,
#96,#97));
#67=CLOSED_SHELL('',(#98,#99,#100));
#68=CONICAL_SURFACE('',#377,2.70777274505108,7.);
#69=CONICAL_SURFACE('',#381,3.,7.00000000000002);
#70=CYLINDRICAL_SURFACE('',#359,2.65777274505109);
#71=CYLINDRICAL_SURFACE('',#373,8.5);
#72=CYLINDRICAL_SURFACE('',#375,8.5);
#73=CIRCLE('',#357,2.65777274505109);
#74=CIRCLE('',#358,2.65777274505109);
#75=CIRCLE('',#363,8.5);
#76=CIRCLE('',#364,8.5);
#77=CIRCLE('',#369,2.96316463172913);
#78=CIRCLE('',#370,8.5);
#79=CIRCLE('',#371,8.5);
#80=CIRCLE('',#376,2.70777274505108);
#81=CIRCLE('',#379,2.70777274505108);
#82=CIRCLE('',#380,3.);
#83=ADVANCED_FACE('',(#114),#101,.F.);
#84=ADVANCED_FACE('',(#115),#70,.T.);
#85=ADVANCED_FACE('',(#116),#102,.F.);
#86=ADVANCED_FACE('',(#117),#103,.T.);
#87=ADVANCED_FACE('',(#118),#104,.T.);
#88=ADVANCED_FACE('',(#119),#105,.F.);
#89=ADVANCED_FACE('',(#120),#106,.T.);
#90=ADVANCED_FACE('',(#121),#107,.T.);
#91=ADVANCED_FACE('',(#122),#108,.T.);
#92=ADVANCED_FACE('',(#123),#109,.T.);
#93=ADVANCED_FACE('',(#124),#71,.F.);
#94=ADVANCED_FACE('',(#125),#110,.F.);
#95=ADVANCED_FACE('',(#126),#72,.F.);
#96=ADVANCED_FACE('',(#127),#68,.F.);
#97=ADVANCED_FACE('',(#128),#111,.T.);
#98=ADVANCED_FACE('',(#27,#28),#69,.T.);
#99=ADVANCED_FACE('',(#129),#112,.F.);
#100=ADVANCED_FACE('',(#130),#113,.T.);
#101=PLANE('',#356);
#102=PLANE('',#360);
#103=PLANE('',#361);
#104=PLANE('',#362);
#105=PLANE('',#365);
#106=PLANE('',#366);
#107=PLANE('',#367);
#108=PLANE('',#368);
#109=PLANE('',#372);
#110=PLANE('',#374);
#111=PLANE('',#378);
#112=PLANE('',#382);
#113=PLANE('',#383);
#114=FACE_OUTER_BOUND('',#131,.T.);
#115=FACE_OUTER_BOUND('',#132,.T.);
#116=FACE_OUTER_BOUND('',#133,.T.);
#117=FACE_OUTER_BOUND('',#134,.T.);
#118=FACE_OUTER_BOUND('',#135,.T.);
#119=FACE_OUTER_BOUND('',#136,.T.);
#120=FACE_OUTER_BOUND('',#137,.T.);
#121=FACE_OUTER_BOUND('',#138,.T.);
#122=FACE_OUTER_BOUND('',#139,.T.);
#123=FACE_OUTER_BOUND('',#140,.T.);
#124=FACE_OUTER_BOUND('',#141,.T.);
#125=FACE_OUTER_BOUND('',#142,.T.);
#126=FACE_OUTER_BOUND('',#143,.T.);
#127=FACE_OUTER_BOUND('',#144,.T.);
#128=FACE_OUTER_BOUND('',#145,.T.);
#129=FACE_OUTER_BOUND('',#148,.T.);
#130=FACE_OUTER_BOUND('',#149,.T.);
#131=EDGE_LOOP('',(#206,#207,#208,#209,#210,#211));
#132=EDGE_LOOP('',(#212,#213,#214,#215));
#133=EDGE_LOOP('',(#216,#217,#218,#219,#220,#221));
#134=EDGE_LOOP('',(#222,#223,#224,#225,#226));
#135=EDGE_LOOP('',(#227,#228,#229,#230,#231,#232));
#136=EDGE_LOOP('',(#233,#234,#235,#236,#237,#238,#239,#240,#241));
#137=EDGE_LOOP('',(#242,#243,#244,#245));
#138=EDGE_LOOP('',(#246,#247,#248,#249));
#139=EDGE_LOOP('',(#250,#251,#252,#253));
#140=EDGE_LOOP('',(#254,#255,#256,#257,#258,#259,#260,#261));
#141=EDGE_LOOP('',(#262,#263,#264,#265));
#142=EDGE_LOOP('',(#266,#267,#268,#269));
#143=EDGE_LOOP('',(#270,#271,#272,#273));
#144=EDGE_LOOP('',(#274,#275,#276,#277));
#145=EDGE_LOOP('',(#278,#279,#280,#281));
#146=EDGE_LOOP('',(#282));
#147=EDGE_LOOP('',(#283));
#148=EDGE_LOOP('',(#284));
#149=EDGE_LOOP('',(#285));
#150=LINE('',#480,#178);
#151=LINE('',#482,#179);
#152=LINE('',#484,#180);
#153=LINE('',#486,#181);
#154=LINE('',#488,#182);
#155=LINE('',#492,#183);
#156=LINE('',#511,#184);
#157=LINE('',#513,#185);
#158=LINE('',#515,#186);
#159=LINE('',#516,#187);
#160=LINE('',#518,#188);
#161=LINE('',#521,#189);
#162=LINE('',#523,#190);
#163=LINE('',#525,#191);
#164=LINE('',#527,#192);
#165=LINE('',#529,#193);
#166=LINE('',#531,#194);
#167=LINE('',#533,#195);
#168=LINE('',#535,#196);
#169=LINE('',#537,#197);
#170=LINE('',#539,#198);
#171=LINE('',#542,#199);
#172=LINE('',#546,#200);
#173=LINE('',#547,#201);
#174=LINE('',#550,#202);
#175=LINE('',#555,#203);
#176=LINE('',#559,#204);
#177=LINE('',#561,#205);
#178=VECTOR('',#386,1.);
#179=VECTOR('',#387,1.);
#180=VECTOR('',#388,1.);
#181=VECTOR('',#389,1.);
#182=VECTOR('',#390,1.);
#183=VECTOR('',#395,1.);
#184=VECTOR('',#400,1.);
#185=VECTOR('',#401,1.);
#186=VECTOR('',#402,1.);
#187=VECTOR('',#403,1.);
#188=VECTOR('',#406,1.);
#189=VECTOR('',#407,1.);
#190=VECTOR('',#408,1.);
#191=VECTOR('',#409,1.);
#192=VECTOR('',#410,1.);
#193=VECTOR('',#413,1.);
#194=VECTOR('',#414,1.);
#195=VECTOR('',#415,1.);
#196=VECTOR('',#416,1.);
#197=VECTOR('',#417,1.);
#198=VECTOR('',#420,1.);
#199=VECTOR('',#423,1.);
#200=VECTOR('',#428,1.);
#201=VECTOR('',#429,1.);
#202=VECTOR('',#434,1.);
#203=VECTOR('',#441,1.);
#204=VECTOR('',#446,1.);
#205=VECTOR('',#449,1.);
#206=ORIENTED_EDGE('',*,*,#313,.F.);
#207=ORIENTED_EDGE('',*,*,#314,.F.);
#208=ORIENTED_EDGE('',*,*,#315,.T.);
#209=ORIENTED_EDGE('',*,*,#316,.F.);
#210=ORIENTED_EDGE('',*,*,#317,.F.);
#211=ORIENTED_EDGE('',*,*,#318,.F.);
#212=ORIENTED_EDGE('',*,*,#319,.F.);
#213=ORIENTED_EDGE('',*,*,#320,.F.);
#214=ORIENTED_EDGE('',*,*,#321,.F.);
#215=ORIENTED_EDGE('',*,*,#315,.F.);
#216=ORIENTED_EDGE('',*,*,#322,.F.);
#217=ORIENTED_EDGE('',*,*,#323,.F.);
#218=ORIENTED_EDGE('',*,*,#324,.F.);
#219=ORIENTED_EDGE('',*,*,#325,.F.);
#220=ORIENTED_EDGE('',*,*,#320,.T.);
#221=ORIENTED_EDGE('',*,*,#326,.F.);
#222=ORIENTED_EDGE('',*,*,#327,.F.);
#223=ORIENTED_EDGE('',*,*,#328,.T.);
#224=ORIENTED_EDGE('',*,*,#329,.T.);
#225=ORIENTED_EDGE('',*,*,#330,.T.);
#226=ORIENTED_EDGE('',*,*,#331,.F.);
#227=ORIENTED_EDGE('',*,*,#332,.T.);
#228=ORIENTED_EDGE('',*,*,#324,.T.);
#229=ORIENTED_EDGE('',*,*,#333,.T.);
#230=ORIENTED_EDGE('',*,*,#334,.F.);
#231=ORIENTED_EDGE('',*,*,#335,.F.);
#232=ORIENTED_EDGE('',*,*,#336,.F.);
#233=ORIENTED_EDGE('',*,*,#321,.T.);
#234=ORIENTED_EDGE('',*,*,#325,.T.);
#235=ORIENTED_EDGE('',*,*,#332,.F.);
#236=ORIENTED_EDGE('',*,*,#337,.F.);
#237=ORIENTED_EDGE('',*,*,#329,.F.);
#238=ORIENTED_EDGE('',*,*,#338,.T.);
#239=ORIENTED_EDGE('',*,*,#339,.T.);
#240=ORIENTED_EDGE('',*,*,#340,.T.);
#241=ORIENTED_EDGE('',*,*,#316,.T.);
#242=ORIENTED_EDGE('',*,*,#335,.T.);
#243=ORIENTED_EDGE('',*,*,#341,.F.);
#244=ORIENTED_EDGE('',*,*,#331,.T.);
#245=ORIENTED_EDGE('',*,*,#342,.T.);
#246=ORIENTED_EDGE('',*,*,#342,.F.);
#247=ORIENTED_EDGE('',*,*,#330,.F.);
#248=ORIENTED_EDGE('',*,*,#337,.T.);
#249=ORIENTED_EDGE('',*,*,#336,.T.);
#250=ORIENTED_EDGE('',*,*,#341,.T.);
#251=ORIENTED_EDGE('',*,*,#334,.T.);
#252=ORIENTED_EDGE('',*,*,#343,.F.);
#253=ORIENTED_EDGE('',*,*,#327,.T.);
#254=ORIENTED_EDGE('',*,*,#323,.T.);
#255=ORIENTED_EDGE('',*,*,#344,.T.);
#256=ORIENTED_EDGE('',*,*,#318,.T.);
#257=ORIENTED_EDGE('',*,*,#345,.T.);
#258=ORIENTED_EDGE('',*,*,#346,.T.);
#259=ORIENTED_EDGE('',*,*,#347,.T.);
#260=ORIENTED_EDGE('',*,*,#343,.T.);
#261=ORIENTED_EDGE('',*,*,#333,.F.);
#262=ORIENTED_EDGE('',*,*,#348,.T.);
#263=ORIENTED_EDGE('',*,*,#338,.F.);
#264=ORIENTED_EDGE('',*,*,#328,.F.);
#265=ORIENTED_EDGE('',*,*,#347,.F.);
#266=ORIENTED_EDGE('',*,*,#349,.T.);
#267=ORIENTED_EDGE('',*,*,#339,.F.);
#268=ORIENTED_EDGE('',*,*,#348,.F.);
#269=ORIENTED_EDGE('',*,*,#346,.F.);
#270=ORIENTED_EDGE('',*,*,#317,.T.);
#271=ORIENTED_EDGE('',*,*,#340,.F.);
#272=ORIENTED_EDGE('',*,*,#349,.F.);
#273=ORIENTED_EDGE('',*,*,#345,.F.);
#274=ORIENTED_EDGE('',*,*,#313,.T.);
#275=ORIENTED_EDGE('',*,*,#344,.F.);
#276=ORIENTED_EDGE('',*,*,#322,.T.);
#277=ORIENTED_EDGE('',*,*,#350,.T.);
#278=ORIENTED_EDGE('',*,*,#314,.T.);
#279=ORIENTED_EDGE('',*,*,#350,.F.);
#280=ORIENTED_EDGE('',*,*,#326,.T.);
#281=ORIENTED_EDGE('',*,*,#319,.T.);
#282=ORIENTED_EDGE('',*,*,#351,.T.);
#283=ORIENTED_EDGE('',*,*,#352,.F.);
#284=ORIENTED_EDGE('',*,*,#351,.F.);
#285=ORIENTED_EDGE('',*,*,#352,.T.);
#286=VERTEX_POINT('',#478);
#287=VERTEX_POINT('',#479);
#288=VERTEX_POINT('',#481);
#289=VERTEX_POINT('',#483);
#290=VERTEX_POINT('',#485);
#291=VERTEX_POINT('',#487);
#292=VERTEX_POINT('',#491);
#293=VERTEX_POINT('',#493);
#294=VERTEX_POINT('',#509);
#295=VERTEX_POINT('',#510);
#296=VERTEX_POINT('',#512);
#297=VERTEX_POINT('',#514);
#298=VERTEX_POINT('',#519);
#299=VERTEX_POINT('',#520);
#300=VERTEX_POINT('',#522);
#301=VERTEX_POINT('',#524);
#302=VERTEX_POINT('',#526);
#303=VERTEX_POINT('',#530);
#304=VERTEX_POINT('',#532);
#305=VERTEX_POINT('',#534);
#306=VERTEX_POINT('',#536);
#307=VERTEX_POINT('',#541);
#308=VERTEX_POINT('',#543);
#309=VERTEX_POINT('',#554);
#310=VERTEX_POINT('',#556);
#311=VERTEX_POINT('',#568);
#312=VERTEX_POINT('',#570);
#313=EDGE_CURVE('',#286,#287,#353,.T.);
#314=EDGE_CURVE('',#288,#286,#150,.T.);
#315=EDGE_CURVE('',#288,#289,#151,.T.);
#316=EDGE_CURVE('',#290,#289,#152,.T.);
#317=EDGE_CURVE('',#291,#290,#153,.T.);
#318=EDGE_CURVE('',#287,#291,#154,.T.);
#319=EDGE_CURVE('',#292,#288,#73,.T.);
#320=EDGE_CURVE('',#293,#292,#155,.T.);
#321=EDGE_CURVE('',#289,#293,#74,.T.);
#322=EDGE_CURVE('',#294,#295,#354,.T.);
#323=EDGE_CURVE('',#296,#294,#156,.T.);
#324=EDGE_CURVE('',#297,#296,#157,.T.);
#325=EDGE_CURVE('',#293,#297,#158,.T.);
#326=EDGE_CURVE('',#295,#292,#159,.T.);
#327=EDGE_CURVE('',#298,#299,#160,.T.);
#328=EDGE_CURVE('',#298,#300,#161,.T.);
#329=EDGE_CURVE('',#300,#301,#162,.T.);
#330=EDGE_CURVE('',#301,#302,#163,.T.);
#331=EDGE_CURVE('',#299,#302,#164,.T.);
#332=EDGE_CURVE('',#303,#297,#165,.T.);
#333=EDGE_CURVE('',#296,#304,#166,.T.);
#334=EDGE_CURVE('',#305,#304,#167,.T.);
#335=EDGE_CURVE('',#306,#305,#168,.T.);
#336=EDGE_CURVE('',#303,#306,#169,.T.);
#337=EDGE_CURVE('',#301,#303,#170,.T.);
#338=EDGE_CURVE('',#300,#307,#75,.T.);
#339=EDGE_CURVE('',#307,#308,#171,.T.);
#340=EDGE_CURVE('',#308,#290,#76,.T.);
#341=EDGE_CURVE('',#299,#305,#172,.T.);
#342=EDGE_CURVE('',#302,#306,#173,.T.);
#343=EDGE_CURVE('',#298,#304,#174,.T.);
#344=EDGE_CURVE('',#294,#287,#77,.T.);
#345=EDGE_CURVE('',#291,#309,#78,.T.);
#346=EDGE_CURVE('',#309,#310,#175,.T.);
#347=EDGE_CURVE('',#310,#298,#79,.T.);
#348=EDGE_CURVE('',#310,#307,#176,.T.);
#349=EDGE_CURVE('',#309,#308,#177,.T.);
#350=EDGE_CURVE('',#295,#286,#80,.T.);
#351=EDGE_CURVE('',#311,#311,#81,.T.);
#352=EDGE_CURVE('',#312,#312,#82,.T.);
#353=B_SPLINE_CURVE_WITH_KNOTS('',3,(#471,#472,#473,#474,#475,#476,#477),
 .UNSPECIFIED.,.F.,.F.,(4,3,4),(0.,0.462697468313656,1.),.UNSPECIFIED.);
#354=B_SPLINE_CURVE_WITH_KNOTS('',3,(#496,#497,#498,#499,#500,#501,#502,
#503,#504,#505,#506,#507,#508),.UNSPECIFIED.,.F.,.F.,(4,3,3,3,4),(0.,0.42236516194785,
0.709278823035363,0.906003655619884,1.),.UNSPECIFIED.);
#355=AXIS2_PLACEMENT_3D('',#470,#384,#385);
#356=AXIS2_PLACEMENT_3D('',#489,#391,#392);
#357=AXIS2_PLACEMENT_3D('',#490,#393,#394);
#358=AXIS2_PLACEMENT_3D('',#494,#396,#397);
#359=AXIS2_PLACEMENT_3D('',#495,#398,#399);
#360=AXIS2_PLACEMENT_3D('',#517,#404,#405);
#361=AXIS2_PLACEMENT_3D('',#528,#411,#412);
#362=AXIS2_PLACEMENT_3D('',#538,#418,#419);
#363=AXIS2_PLACEMENT_3D('',#540,#421,#422);
#364=AXIS2_PLACEMENT_3D('',#544,#424,#425);
#365=AXIS2_PLACEMENT_3D('',#545,#426,#427);
#366=AXIS2_PLACEMENT_3D('',#548,#430,#431);
#367=AXIS2_PLACEMENT_3D('',#549,#432,#433);
#368=AXIS2_PLACEMENT_3D('',#551,#435,#436);
#369=AXIS2_PLACEMENT_3D('',#552,#437,#438);
#370=AXIS2_PLACEMENT_3D('',#553,#439,#440);
#371=AXIS2_PLACEMENT_3D('',#557,#442,#443);
#372=AXIS2_PLACEMENT_3D('',#558,#444,#445);
#373=AXIS2_PLACEMENT_3D('',#560,#447,#448);
#374=AXIS2_PLACEMENT_3D('',#562,#450,#451);
#375=AXIS2_PLACEMENT_3D('',#563,#452,#453);
#376=AXIS2_PLACEMENT_3D('',#564,#454,#455);
#377=AXIS2_PLACEMENT_3D('',#565,#456,#457);
#378=AXIS2_PLACEMENT_3D('',#566,#458,#459);
#379=AXIS2_PLACEMENT_3D('',#567,#460,#461);
#380=AXIS2_PLACEMENT_3D('',#569,#462,#463);
#381=AXIS2_PLACEMENT_3D('',#571,#464,#465);
#382=AXIS2_PLACEMENT_3D('',#572,#466,#467);
#383=AXIS2_PLACEMENT_3D('',#573,#468,#469);
#384=DIRECTION('',(0.,0.,1.));
#385=DIRECTION('',(1.,0.,0.));
#386=DIRECTION('',(0.707106781186547,0.707106781186548,0.));
#387=DIRECTION('',(0.,0.,-1.));
#388=DIRECTION('',(-0.707106781186547,-0.707106781186548,0.));
#389=DIRECTION('',(0.,0.,-1.));
#390=DIRECTION('',(0.707106781186547,0.707106781186548,0.));
#391=DIRECTION('',(-0.707106781186548,0.707106781186547,0.));
#392=DIRECTION('',(-0.707106781186547,-0.707106781186548,0.));
#393=DIRECTION('',(0.,0.,1.));
#394=DIRECTION('',(1.,0.,0.));
#395=DIRECTION('',(0.,0.,1.));
#396=DIRECTION('',(0.,0.,-1.));
#397=DIRECTION('',(1.,0.,0.));
#398=DIRECTION('',(0.,0.,1.));
#399=DIRECTION('',(1.,0.,0.));
#400=DIRECTION('',(-0.5,-0.866025403784439,0.));
#401=DIRECTION('',(0.,0.,1.));
#402=DIRECTION('',(0.5,0.866025403784439,0.));
#403=DIRECTION('',(-0.5,-0.866025403784439,0.));
#404=DIRECTION('',(0.866025403784439,-0.5,0.));
#405=DIRECTION('',(0.5,0.866025403784439,0.));
#406=DIRECTION('',(0.707106781186547,0.,0.707106781186548));
#407=DIRECTION('',(0.,0.,-1.));
#408=DIRECTION('',(1.,0.,0.));
#409=DIRECTION('',(0.,0.,1.));
#410=DIRECTION('',(1.,0.,0.));
#411=DIRECTION('',(0.,-1.,0.));
#412=DIRECTION('',(0.,0.,-1.));
#413=DIRECTION('',(-1.,0.,0.));
#414=DIRECTION('',(1.,0.,0.));
#415=DIRECTION('',(-0.707106781186547,0.,-0.707106781186548));
#416=DIRECTION('',(-1.,0.,0.));
#417=DIRECTION('',(0.,0.,1.));
#418=DIRECTION('',(0.,1.,0.));
#419=DIRECTION('',(0.,0.,1.));
#420=DIRECTION('',(0.,1.,0.));
#421=DIRECTION('',(0.,0.,1.));
#422=DIRECTION('',(1.,0.,0.));
#423=DIRECTION('',(-1.,0.,0.));
#424=DIRECTION('',(0.,0.,1.));
#425=DIRECTION('',(1.,0.,0.));
#426=DIRECTION('',(0.,0.,1.));
#427=DIRECTION('',(1.,0.,0.));
#428=DIRECTION('',(0.,1.,0.));
#429=DIRECTION('',(0.,1.,0.));
#430=DIRECTION('',(0.,0.,1.));
#431=DIRECTION('',(1.,0.,0.));
#432=DIRECTION('',(1.,0.,0.));
#433=DIRECTION('',(0.,0.,-1.));
#434=DIRECTION('',(0.,1.,0.));
#435=DIRECTION('',(-0.707106781186548,0.,0.707106781186547));
#436=DIRECTION('',(0.707106781186547,0.,0.707106781186548));
#437=DIRECTION('',(0.,0.,-1.));
#438=DIRECTION('',(1.,0.,0.));
#439=DIRECTION('',(0.,0.,-1.));
#440=DIRECTION('',(1.,0.,0.));
#441=DIRECTION('',(1.,0.,0.));
#442=DIRECTION('',(0.,0.,-1.));
#443=DIRECTION('',(1.,0.,0.));
#444=DIRECTION('',(0.,0.,1.));
#445=DIRECTION('',(1.,0.,0.));
#446=DIRECTION('',(0.,0.,-1.));
#447=DIRECTION('',(0.,0.,1.));
#448=DIRECTION('',(1.,0.,0.));
#449=DIRECTION('',(0.,0.,-1.));
#450=DIRECTION('',(0.,1.,0.));
#451=DIRECTION('',(0.,0.,1.));
#452=DIRECTION('',(0.,0.,1.));
#453=DIRECTION('',(1.,0.,0.));
#454=DIRECTION('',(0.,0.,-1.));
#455=DIRECTION('',(1.,0.,0.));
#456=DIRECTION('',(0.,0.,1.));
#457=DIRECTION('',(1.,0.,4.077885959542E-16));
#458=DIRECTION('',(0.,0.,1.));
#459=DIRECTION('',(1.,0.,0.));
#460=DIRECTION('',(0.,0.,1.));
#461=DIRECTION('',(1.,0.,0.));
#462=DIRECTION('',(0.,0.,1.));
#463=DIRECTION('',(1.,0.,0.));
#464=DIRECTION('',(0.,0.,1.));
#465=DIRECTION('',(1.,0.,-8.75958424372055E-17));
#466=DIRECTION('',(0.,0.,1.));
#467=DIRECTION('',(1.,0.,0.));
#468=DIRECTION('',(0.,0.,1.));
#469=DIRECTION('',(1.,0.,0.));
#470=CARTESIAN_POINT('',(0.,0.,0.));
#471=CARTESIAN_POINT('',(5.24557855033538,-23.5130797114215,-2.28));
#472=CARTESIAN_POINT('',(5.37672099370772,-23.3819372680491,-1.99106893556459));
#473=CARTESIAN_POINT('',(5.46812087239842,-23.2905373893584,-1.6676893631005));
#474=CARTESIAN_POINT('',(5.5512989168306,-23.2073593449262,-1.34513600820865));
#475=CARTESIAN_POINT('',(5.64823389487193,-23.1104243668849,-0.969235100859327));
#476=CARTESIAN_POINT('',(5.73006869140482,-23.028589570352,-0.58552902093836));
#477=CARTESIAN_POINT('',(5.80577089116182,-22.952887370595,-0.2));
#478=CARTESIAN_POINT('',(5.24557855033538,-23.5130797114215,-2.28));
#479=CARTESIAN_POINT('',(5.80577089116182,-22.952887370595,-0.2));
#480=CARTESIAN_POINT('',(8.26906590184246,-20.4895923599144,-2.28));
#481=CARTESIAN_POINT('',(4.87932913087841,-23.8793291308784,-2.28));
#482=CARTESIAN_POINT('',(4.87932913087841,-23.8793291308784,-35.));
#483=CARTESIAN_POINT('',(4.87932913087841,-23.8793291308784,-20.));
#484=CARTESIAN_POINT('',(8.26906590184246,-20.4895923599144,-20.));
#485=CARTESIAN_POINT('',(8.26906590184246,-20.4895923599144,-20.));
#486=CARTESIAN_POINT('',(8.26906590184246,-20.4895923599144,-35.));
#487=CARTESIAN_POINT('',(8.26906590184246,-20.4895923599144,-0.2));
#488=CARTESIAN_POINT('',(8.26906590184246,-20.4895923599144,-0.2));
#489=CARTESIAN_POINT('',(8.26906590184246,-20.4895923599144,-35.));
#490=CARTESIAN_POINT('',(3.,-22.,-2.28));
#491=CARTESIAN_POINT('',(0.698301285299856,-20.6711136274745,-2.28));
#492=CARTESIAN_POINT('',(0.698301285299855,-20.6711136274745,-35.));
#493=CARTESIAN_POINT('',(0.698301285299856,-20.6711136274745,-20.));
#494=CARTESIAN_POINT('',(3.,-22.,-20.));
#495=CARTESIAN_POINT('',(3.,-22.,-35.));
#496=CARTESIAN_POINT('',(1.35339453637065,-19.5364588329244,-0.2));
#497=CARTESIAN_POINT('',(1.31134447308971,-19.6092916789885,-0.502851847612481));
#498=CARTESIAN_POINT('',(1.26644627183121,-19.6870576447366,-0.804322989084317));
#499=CARTESIAN_POINT('',(1.21609845804679,-19.7742626162612,-1.10206862461662));
#500=CARTESIAN_POINT('',(1.18189868654338,-19.8334983581124,-1.30431837363137));
#501=CARTESIAN_POINT('',(1.14519588481048,-19.8970694754939,-1.50511130304433));
#502=CARTESIAN_POINT('',(1.10379954009524,-19.9687700477884,-1.70190771824781));
#503=CARTESIAN_POINT('',(1.07541853310188,-20.0179273938708,-1.83682978623662));
#504=CARTESIAN_POINT('',(1.04481744375043,-20.0709300353945,-1.97017194359235));
#505=CARTESIAN_POINT('',(1.0101720347528,-20.1309376440274,-2.09910864590692));
#506=CARTESIAN_POINT('',(0.993639135687896,-20.1595734652042,-2.16063764922377));
#507=CARTESIAN_POINT('',(0.976144955846184,-20.1898742735268,-2.22121711254031));
#508=CARTESIAN_POINT('',(0.95727873340349,-20.2225515293445,-2.28));
#509=CARTESIAN_POINT('',(1.35339453637065,-19.5364588329244,-0.2));
#510=CARTESIAN_POINT('',(0.95727873340349,-20.2225515293445,-2.28));
#511=CARTESIAN_POINT('',(0.698301285299857,-20.6711136274745,-0.2));
#512=CARTESIAN_POINT('',(12.6327743025716,0.,-0.2));
#513=CARTESIAN_POINT('',(12.6327743025716,1.04083408558608E-14,-35.));
#514=CARTESIAN_POINT('',(12.6327743025716,0.,-20.));
#515=CARTESIAN_POINT('',(0.698301285299857,-20.6711136274745,-20.));
#516=CARTESIAN_POINT('',(0.698301285299857,-20.6711136274745,-2.28));
#517=CARTESIAN_POINT('',(0.698301285299857,-20.6711136274745,-35.));
#518=CARTESIAN_POINT('',(9.1,-20.,-17.1));
#519=CARTESIAN_POINT('',(26.,-20.,-0.200000000000027));
#520=CARTESIAN_POINT('',(26.2,-20.,0.));
#521=CARTESIAN_POINT('',(26.,-20.,-35.));
#522=CARTESIAN_POINT('',(26.,-20.,-20.));
#523=CARTESIAN_POINT('',(12.,-20.,-20.));
#524=CARTESIAN_POINT('',(125.,-20.,-20.));
#525=CARTESIAN_POINT('',(125.,-20.,-20.));
#526=CARTESIAN_POINT('',(125.,-20.,0.));
#527=CARTESIAN_POINT('',(12.,-20.,0.));
#528=CARTESIAN_POINT('',(12.,-20.,-20.));
#529=CARTESIAN_POINT('',(125.,0.,-20.));
#530=CARTESIAN_POINT('',(125.,0.,-20.));
#531=CARTESIAN_POINT('',(125.,0.,-0.2));
#532=CARTESIAN_POINT('',(26.,0.,-0.2));
#533=CARTESIAN_POINT('',(65.6,0.,39.4));
#534=CARTESIAN_POINT('',(26.2,0.,0.));
#535=CARTESIAN_POINT('',(125.,0.,0.));
#536=CARTESIAN_POINT('',(125.,0.,0.));
#537=CARTESIAN_POINT('',(125.,0.,-20.));
#538=CARTESIAN_POINT('',(125.,0.,-20.));
#539=CARTESIAN_POINT('',(125.,-20.,-20.));
#540=CARTESIAN_POINT('',(20.5227744249484,-26.5,-20.));
#541=CARTESIAN_POINT('',(20.5227744249484,-18.,-20.));
#542=CARTESIAN_POINT('',(20.5227744249484,-18.,-20.));
#543=CARTESIAN_POINT('',(14.2794735419281,-18.,-20.));
#544=CARTESIAN_POINT('',(14.2794735419281,-26.5,-20.));
#545=CARTESIAN_POINT('',(0.,0.,-20.));
#546=CARTESIAN_POINT('',(26.2,0.,0.));
#547=CARTESIAN_POINT('',(125.,-20.,0.));
#548=CARTESIAN_POINT('',(0.,0.,0.));
#549=CARTESIAN_POINT('',(125.,-20.,-20.));
#550=CARTESIAN_POINT('',(26.,-28.,-0.2));
#551=CARTESIAN_POINT('',(26.,-28.,-0.2));
#552=CARTESIAN_POINT('',(3.,-22.,-0.2));
#553=CARTESIAN_POINT('',(14.2794735419281,-26.5,-0.2));
#554=CARTESIAN_POINT('',(14.2794735419281,-18.,-0.2));
#555=CARTESIAN_POINT('',(20.5227744249484,-18.,-0.2));
#556=CARTESIAN_POINT('',(20.5227744249484,-18.,-0.2));
#557=CARTESIAN_POINT('',(20.5227744249484,-26.5,-0.2));
#558=CARTESIAN_POINT('',(0.,0.,-0.2));
#559=CARTESIAN_POINT('',(20.5227744249484,-18.,-35.));
#560=CARTESIAN_POINT('',(20.5227744249484,-26.5,-35.));
#561=CARTESIAN_POINT('',(14.2794735419281,-18.,-35.));
#562=CARTESIAN_POINT('',(20.5227744249484,-18.,-35.));
#563=CARTESIAN_POINT('',(14.2794735419281,-26.5,-35.));
#564=CARTESIAN_POINT('',(3.,-22.,-2.28));
#565=CARTESIAN_POINT('',(3.,-22.,-2.28));
#566=CARTESIAN_POINT('',(3.,-22.,-2.28));
#567=CARTESIAN_POINT('',(2.99999999999999,-22.,-2.28));
#568=CARTESIAN_POINT('',(5.70777274505108,-22.,-2.28));
#569=CARTESIAN_POINT('',(2.99999999999999,-22.,0.1));
#570=CARTESIAN_POINT('',(5.99999999999999,-22.,0.1));
#571=CARTESIAN_POINT('',(2.99999999999999,-22.,0.1));
#572=CARTESIAN_POINT('',(2.99999999999999,-22.,-2.28));
#573=CARTESIAN_POINT('',(2.99999999999999,-22.,0.1));
#574=(
GEOMETRIC_REPRESENTATION_CONTEXT(3)
GLOBAL_UNCERTAINTY_ASSIGNED_CONTEXT((#575))
GLOBAL_UNIT_ASSIGNED_CONTEXT((#581,#577,#576))
REPRESENTATION_CONTEXT('SRGCR-2020-K06','TOP_LEVEL_ASSEMBLY_PART')
);
#575=UNCERTAINTY_MEASURE_WITH_UNIT(LENGTH_MEASURE(0.0508),#581,
'DISTANCE_ACCURACY_VALUE','Maximum Tolerance applied to model');
#576=(
NAMED_UNIT(*)
SI_UNIT($,.STERADIAN.)
SOLID_ANGLE_UNIT()
);
#577=(
CONVERSION_BASED_UNIT('DEGREE',#579)
NAMED_UNIT(#578)
PLANE_ANGLE_UNIT()
);
#578=DIMENSIONAL_EXPONENTS(0.,0.,0.,0.,0.,0.,0.);
#579=PLANE_ANGLE_MEASURE_WITH_UNIT(PLANE_ANGLE_MEASURE(0.0174532925),#580);
#580=(
NAMED_UNIT(*)
PLANE_ANGLE_UNIT()
SI_UNIT($,.RADIAN.)
);
#581=(
LENGTH_UNIT()
NAMED_UNIT(*)
SI_UNIT(.MILLI.,.METRE.)
);
ENDSEC;
END-ISO-10303-21;
